Guitar Tabs, Chords and Lyrics
Server problems seems to be fixed. Chordie has been experiencing problems with songs disappearing. These issues now seems to be fixed, but still verifying the fix. If you find anything strange, please email admin@chordie.com.


Aku Yang Asing  Hujan

Title: Aku Yang Asing
Artist: Hujan
Album: Lonely Soldie Boy
Tempo = 95
Nylon Guitar
Legend
L - tied note
x - dead note
h - hammer on/pull off
b - bend
s - slide
~ - vibrato
g - ghost note
> - accentuated note
t - trill
M - palm mute
. - staccato
P - popping (bass)
S - slapping (bass)
+ - tapping
W - wide vibrato
< - fade in
w - whammy bar
= - tremolo picking
v - brush up
^ - brush down
V - pick stroke up
n - pick stroke down
Intro
 
 E |----|--2-----2-----2-----2-------|--4-----4-----4-----4-------|
 B |----|--2g----2g----2g----2g------|--2g----2g----2g----2g------|
 G |----|----------------------------|----------------------------|
 D |----|----------------------------|----------------------------|
 A |----|-----0-----0-----0-----0----|-----0-----0-----0-----0----|
 E |----|----------------------------|----------------------------|

Verse
 
 --5-----5-----5-----5-------|--4----|--0-----0-----0-----0-------|
 --2g----2g----2g----2g------|--2g---|--2g----2g----2g----2g------|
 ----------------------------|--2----|----------------------------|
 ----------------------------|-------|----------------------------|
 -----0-----0-----0-----0----|--0----|-----0-----0-----0-----0----|
 ----------------------------|-------|----------------------------|
 --4-----4-----4-----2-------|--4-----4-----4-----4-------|
 --2g----2g----2g----2g------|--2g----2g----2g----2g------|
 ----------------------------|----------------------------|
 ----------------------------|----------------------------|
 -----0-----0-----0-----0----|-----2-----2-----2-----2----|
 ----------------------------|----------------------------|
 --5-----5-----5-----5-------|--4-----4-----4-----4-------|
 --2g----2g----2g----2g------|--2g----2g----2g----2g------|
 ----------------------------|----------------------------|
 ----------------------------|----------------------------|
 -----2-----2-----2-----2----|-----0-----0-----0-----0----|
 ----------------------------|----------------------------|
 --2-----2-----2-----2-------|--4-----4-----4-----4-------|--2----|
 --1g----1g----1g----1g------|--2g----2g----2g----2g------|--2g---|
 ----------------------------|----------------------------|--2----|
 -----0-----0-----0-----0----|----------------------------|-------|
 ----------------------------|-----0-----0-----0-----0----|--0----|
 ----------------------------|----------------------------|-------|

Verse 2
 
 --0-----0-----0-----0-------|--4-----4-----4-----2-------|
 --2g----2g----2g----2g------|--2g----2g----2g----2g------|
 ----------------------------|----------------------------|
 ----------------------------|----------------------------|
 -----0-----0-----0-----0----|-----0-----0-----0-----0----|
 ----------------------------|----------------------------|
 --4-----4-----4-----4-------|--5-----5-----5-----5-------|
 --2g----2g----2g----2g------|--2g----2g----2g----2g------|
 ----------------------------|----------------------------|
 ----------------------------|----------------------------|
 -----2-----2-----2-----2----|-----2-----2-----2-----2----|
 ----------------------------|----------------------------|
 --4-----4-----4-----4-------|--2-----2-----2-----2-------|
 --2g----2g----2g----2g------|--1g----1g----1g----1g------|
 ----------------------------|----------------------------|
 ----------------------------|-----0-----0-----0-----0----|
 -----0-----0-----0-----0----|----------------------------|
 ----------------------------|----------------------------|
 --4-----4-----4-----4-------|--2-----2-----2-----2-------|
 --2g----2g----2g----2g------|--2g----2g----2g----2g------|
 ----------------------------|----------------------------|
 ----------------------------|----------------------------|
 -----0-----0-----0-----0----|-----0-----0-----0-----0----|
 ----------------------------|----------------------------|

Pre Chorus
 
 --4-----4-----4-----4-------|--5-----5-----5-----5-------|
 --2g----2g----2g----2g------|--2g----2g----2g----2g------|
 ----------------------------|----------------------------|
 ----------------------------|-----0-----0-----0-----0----|
 -----2-----2-----2-----2----|----------------------------|
 ----------------------------|----------------------------|
 --4-----4-----4-----4-------|--2-----2-----2-----2-------|
 --2g----2g----2g----2g------|--2g----2g----2g----2g------|
 ----------------------------|----------------------------|
 ----------------------------|----------------------------|
 -----4-----4-----4-----4----|----------------------------|
 ----------------------------|-----2-----2-----2-----2----|
 --2-----2-----2-----2-------|----------------------------|
 --3g----3g----3g----3g------|--3-----3-----3-----3-------|
 ----------------------------|--4-----4-----4-----4-------|
 ----------------------------|----------------------------|
 -----2-----2-----2-----2----|--------------4g-4--4g-4----|
 ----------------------------|--4g-4--4g-4----------------|
 ----------------------------|--2-----2-----2-----2-------|
 --2-----2-----2-----2-------|--2g----2g----2g----2g------|
 --3-----3-----3-----3-------|-----3-----3-----3-----3----|
 -----4-----4-----4-----4----|----------------------------|
 ----------------------------|----------------------------|
 ----------------------------|----------------------------|

Chorus (play chords)
[Bm7] [E7]  
 
 --2-----2-----2-----2-------|--4-----4-----4-----4-------|
 --3g----3g----3g----3g------|--3g----3g----3g----3g------|
 ----------------------------|----------------------------|
 ----------------------------|-----2-----2-----2-----2----|
 -----2-----2-----2-----2----|----------------------------|
 ----------------------------|----------------------------|

[C#m7] [F#m7]  
 
 --4-----4-----4-----4-------|--2-----2-----2-----2-------|
 --5g----5g----5g----5g------|--2g----2g----2g----2g------|
 ----------------------------|----------------------------|
 ----------------------------|----------------------------|
 -----4-----4-----4-----4----|----------------------------|
 ----------------------------|-----2-----2-----2-----2----|

[Dmaj7] [E7]  
 
 --2-----2-----2-----2-------|--4-----4-----4-----4-------|
 --2g----2g----2g----2g------|--3g----3g----3g----3g------|
 ----------------------------|----------------------------|
 -----0-----0-----0-----0----|-----2-----2-----2-----2----|
 ----------------------------|----------------------------|
 ----------------------------|----------------------------|

[Amaj7] [A13]  
 
 --0-----0-----0-----0-------|--2-----2-----2-----2-------|
 --2g----2g----2g----2g------|--2g----2g----2g----2g------|
 ----------------------------|----------------------------|
 ----------------------------|----------------------------|
 -----0-----0-----0-----0----|-----0-----0-----0-----0----|
 ----------------------------|----------------------------|

[Bm7] [E7]  
 
 --2-----2-----2-----2-------|--4-----4-----4-----4-------|
 --3g----3g----3g----3g------|--3g----3g----3g----3g------|
 ----------------------------|----------------------------|
 ----------------------------|-----2-----2-----2-----2----|
 -----2-----2-----2-----2----|----------------------------|
 ----------------------------|----------------------------|

[C#m7] [F#m7]  
 
 --4-----4-----4-----4-------|--2-----2-----2-----2-------|
 --5g----5g----5g----5g------|--2g----2g----2g----2g------|
 ----------------------------|----------------------------|
 ----------------------------|----------------------------|
 -----4-----4-----4-----4----|----------------------------|
 ----------------------------|-----2-----2-----2-----2----|

[Dmaj7] [E7]  
 
 --2-----2-----2-----2-------|--4-----4-----4-----4-------|
 --2g----2g----2g----2g------|--3g----3g----3g----3g------|
 ----------------------------|----------------------------|
 -----0-----0-----0-----0----|-----2-----2-----2-----2----|
 ----------------------------|----------------------------|
 ----------------------------|----------------------------|

Solo
[Amaj7]  
 
 --0-----0-----0-----0-------|--0-----0-----0-----0-------|
 --2g----2g----2g----2g------|--2g----2g----2g----2g------|
 ----------------------------|----------------------------|
 ----------------------------|----------------------------|
 -----0-----0-----0-----0----|-----0-----0-----0-----0----|
 ----------------------------|----------------------------|

[C#m7]  
 
 --4-----4-----4-----4-------|--4-----4-----4-----4-------|
 --5g----5g----5g----5g------|--5g----5g----5g----5g------|
 ----------------------------|----------------------------|
 ----------------------------|----------------------------|
 -----4-----4-----4-----4----|-----4-----4-----4-----4----|
 ----------------------------|----------------------------|

[D7] [Dm7]  
 
 --2-----2-----2-----2-------|--1-----1-----1-----1-------|
 --2g----2g----2g----2g------|--2g----2g----2g----2g------|
 ----------------------------|----------------------------|
 -----0-----0-----0-----0----|-----0-----0-----0-----0----|
 ----------------------------|----------------------------|
 ----------------------------|----------------------------|

[Amaj7]  
 
 --0-----0-----0-----0-------|--0-----0-----0-----0-------|
 --2g----2g----2g----2g------|--2g----2g----2g----2g------|
 ----------------------------|----------------------------|
 ----------------------------|----------------------------|
 -----0-----0-----0-----0----|-----0-----0-----0-----0----|
 ----------------------------|----------------------------|

[Dmaj7]  
 
 --2-----2-----2-----2-------|--2-----2-----2-----2-------|
 --2g----2g----2g----2g------|--2g----2g----2g----2g------|
 ----------------------------|----------------------------|
 -----0-----0-----0-----0----|-----0-----0-----0-----0----|
 ----------------------------|----------------------------|
 ----------------------------|----------------------------|

[C#m7]  
 
 --4-----4-----4-----4-------|--4-----4-----4-----4-------|
 --5g----5g----5g----5g------|--5g----5g----5g----5g------|
 ----------------------------|----------------------------|
 ----------------------------|----------------------------|
 -----4-----4-----4-----4----|-----4-----4-----4-----4----|
 ----------------------------|----------------------------|

[Bm7]  
 
 --2-----2-----2-----2-------|--2-----2-----2-----2-------|
 --3g----3g----3g----3g------|--3g----3g----3g----3g------|
 ----------------------------|----------------------------|
 ----------------------------|----------------------------|
 -----2-----2-----2-----2----|-----2-----2-----2-----2----|
 ----------------------------|----------------------------|

[Amaj7] [A13]  
 
 --0-----0-----0-----0-------|--2-----2-----2-----2-------|
 --2g----2g----2g----2g------|--2g----2g----2g----2g------|
 ----------------------------|----------------------------|
 ----------------------------|----------------------------|
 -----0-----0-----0-----0----|-----0-----0-----0-----0----|
 ----------------------------|----------------------------|

[Bm7] [E7]  
 
 --2-----2-----2-----2-------|--4-----4-----4-----4-------|
 --3g----3g----3g----3g------|--3g----3g----3g----3g------|
 ----------------------------|----------------------------|
 ----------------------------|-----2-----2-----2-----2----|
 -----2-----2-----2-----2----|----------------------------|
 ----------------------------|----------------------------|

[C#m7] [F#m7]  
 
 --4-----4-----4-----4-------|--2-----2-----2-----2-------|
 --5g----5g----5g----5g------|--2g----2g----2g----2g------|
 ----------------------------|----------------------------|
 ----------------------------|----------------------------|
 -----4-----4-----4-----4----|----------------------------|
 ----------------------------|-----2-----2-----2-----2----|

[Dmaj7] [E7]  
 
 --2-----2-----2-----2-------|--4-----4-----4-----4-------|
 --2g----2g----2g----2g------|--3g----3g----3g----3g------|
 ----------------------------|----------------------------|
 -----0-----0-----0-----0----|-----2-----2-----2-----2----|
 ----------------------------|----------------------------|
 ----------------------------|----------------------------|

[Amaj7] [A13]  
 
 --0-----0-----0-----0-------|--2-----2-----2-----2-------|
 --2g----2g----2g----2g------|--2g----2g----2g----2g------|
 ----------------------------|----------------------------|
 ----------------------------|----------------------------|
 -----0-----0-----0-----0----|-----0-----0-----0-----0----|
 ----------------------------|----------------------------|

[Bm7] [E7]  
 
 --2-----2-----2-----2-------|--4-----4-----4-----4-------|
 --3g----3g----3g----3g------|--3g----3g----3g----3g------|
 ----------------------------|----------------------------|
 ----------------------------|-----2-----2-----2-----2----|
 -----2-----2-----2-----2----|----------------------------|
 ----------------------------|----------------------------|

[C#m7] [F#m7]  
 
 --4-----4-----4-----4-------|--2-----2-----2-----2-------|
 --5g----5g----5g----5g------|--2g----2g----2g----2g------|
 ----------------------------|----------------------------|
 ----------------------------|----------------------------|
 -----4-----4-----4-----4----|----------------------------|
 ----------------------------|-----2-----2-----2-----2----|

[Dmaj7] [E7] [Amaj7] ^
 
 --2-----2-----2-----2-------|--4-----4-----4-----4-------|--0----||
 --2g----2g----2g----2g------|--3g----3g----3g----3g------|--2----||
 ----------------------------|----------------------------|--1----||
 -----0-----0-----0-----0----|-----2-----2-----2-----2----|--2----||
 ----------------------------|----------------------------|--0----||
 ----------------------------|----------------------------|-------||

anwar.

Important: The song above is NOT stored on the Chordie server. The original song is hosted at www.guitaretab.com. Chordie works as a search engine and provides on-the-fly formatting. Chordie does not index songs against artists'/composers' will. To remove this song please click here.

Text color:
Chord color:
Chord grids: 
Font size:    
Page size: 

A13 Amaj7 Bm7 C#m7 D7 Dm7 Dmaj7 E7 F#m7
Rate #2 of 4 versions

Login - add to songbook

SHARE PAGE  



You need to log in to post comments