Guitar Tabs, Chords and Lyrics
Server problems seems to be fixed. Chordie has been experiencing problems with songs disappearing. These issues now seems to be fixed, but still verifying the fix. If you find anything strange, please email admin@chordie.com.


Cominâ?? Home   Hum

 
 E|------------------------------------------------------|
 B|------------------------------------------------------|
 G|-11-11--11-11--11-11--11-11---7-7--7-7--11-11--11-11--|
 D|-11-11--11-11--11-11--11-11---7-7--7-7--11-11--11-11--|
 A|--9--9---9--9---9--9---9--9---5-5--5-5---9--9---9--9--|
 D|--9--9---9--9-----------------5-5--5-5----------------|
 E|---------------------------------------------|
 B|---------------------------------------------|
 G|-11-11--11-11--11-11--11-11--7--5-4--4--7-7--|
 D|-11-11--11-11--11-11--11-11--7--5-4--4--7-7--|
 A|--9--9---9--9---9--9---9--9--5--3-2--2--5-5--|
 D|--9--9---9--9----------------5--3-2--2--5-5--|

 


 *


 Kick in distortion here 2nd


 time through.


 Guitar 2, clean


 


 

 
 E|---------------------0-------------------0---0----|
 B|---------------4-------4---------------4---4---4--|
 G|-11-11--11-11--4-------4-----7-7--7-7--4-------4--|
 D|-11-11--11-11----------------7-7--7-7-------------|
 A|--9--9---9--9----------------5-5--5-5-------------|
 D|--9--9---9--9----------------5-5--5-5-------------|
 E|---------------------0-----------------------|
 B|---------------4-------4---------------------|
 G|-11-11--11-11--4-------4-----7--5-4--4--7-7--|
 D|-11-11--11-11----------------7--5-4--4--7-7--|
 A|--9--9---9--9----------------5--3-2--2--5-5--|
 D|--9--9---9--9----------------5--3-2--2--5-5--|

 


 *


 Kick in distortion here 2nd


 time through.


 Main Riff


 

 
 ---------

 


 Both Guitars, distorted


 


 

 
 E|-----------------------------------------|
 B|-----------------------------------------|
 G|-7-7--7/14--5-4-4-4--7-7--7/14--5-4-4-4--|
 D|-7-7--X--X--5-4-4-4--7-7--X--X--5-4-4-4--|
 A|-5-5--5/12--3-2-2-2--5-5--5/12--3-2-2-2--|
 D|-5-5--------3-2-2-2--5-5--------3-2-2-2--|

 


 


 Verse


 [-----]Both Guitars, distorted


 


 

 
 E|---------------------------------------|
 B|---------------------------------------|
 G|-7--7--5-4-4-4--12--7--7--5-4-4-4--12--|
 D|-7--X--5-4-4-4--12--7--X--5-4-4-4--12--|
 A|-5--5--3-2-2-2--10--5--5--3-2-2-2--10--|
 D|-5-----3-2-2-2--10--5-----3-2-2-2--10--|

 


 


 1st Chorus


 

 
 ----------

 


 Both Guitars, distorted


 


 

 
 E|------------------------------------------------|
 B|------------------------------------------------|
 G|------------------------------------------------|
 D|-5--3--3-2--10-10-9-9-7-5--3--3-2--10-10-9-9-7--|
 A|-5--3--3-2--10-10-9-9-7-5--3--3-2--10-10-9-9-7--|
 D|-5--3--3-2--10-10-9-9-7-5--3--3-2--10-10-9-9-7--|
 E|--------------------------------------------------|
 B|--------------------------------------------------|
 G|---------------------------12---------------------|
 D|-5--3--3-2--10-10-9-9-7-5---X---3-2--10-10-9-9-7--|
 A|-5--3--3-2--10-10-9-9-7-5--10---3-2--10-10-9-9-7--|
 D|-5--3--3-2--10-10-9-9-7-5-------3-2--10-10-9-9-7--|
 E|---------------------------------------------------|
 B|---------------------------------------------------|
 G|----9-----------------------11---------------------|
 D|-5--X---3-2--10-10-9-9-7-5---X---3-2--10-10-9-9-7--|
 A|-5--7---3-2--10-10-9-9-7-5---9---3-2--10-10-9-9-7--|
 D|-5------3-2--10-10-9-9-7-5-------3-2--10-10-9-9-7--|
 E|--------------------|
 B|--------------------|
 G|----6---------------|
 D|-5--X---3-2--10-10--|
 A|-5--4---3-2--10-10--|
 D|-5------3-2--10-10--|

 


 


 Verse, again


 


 Main Riff, again


 


 Verse, again


 


 2nd Chorus


 

 
 ----------

 


 Both Guitars, distorted


 


 

 
 E|------------------------------------------------|
 B|------------------------------------------------|
 G|------------------------------------------------|
 D|-5--3--3-2--10-10-9-9-7-5--3--3-2--10-10-9-9-7--|
 A|-5--3--3-2--10-10-9-9-7-5--3--3-2--10-10-9-9-7--|
 D|-5--3--3-2--10-10-9-9-7-5--3--3-2--10-10-9-9-7--|
 E|-------------------------------------------------|
 B|-------------------------------------------------|
 G|---------------------------9---------------------|
 D|-5--3--3-2--10-10-9-9-7-5--X---3-2--10-10-9-9-7--|
 A|-5--3--3-2--10-10-9-9-7-5--7---3-2--10-10-9-9-7--|
 D|-5--3--3-2--10-10-9-9-7-5------3-2--10-10-9-9-7--|
 E|----------------------------------------------------|
 B|----------------------------------------------------|
 G|----16-----------------------14---------------------|
 D|-5---X---3-2--10-10-9-9-7-5---X---3-2--10-10-9-9-7--|
 A|-5--14---3-2--10-10-9-9-7-5--10---3-2--10-10-9-9-7--|
 D|-5-------3-2--10-10-9-9-7-5-------3-2--10-10-9-9-7--|
 E|-------------|
 B|-------------|
 G|---12--------|
 D|-5--X---3-2--|
 A|-5--9---3-2--|
 D|-5------3-2--|


Important: The song above is NOT stored on the Chordie server. The original song is hosted at www.guitaretab.com. Chordie works as a search engine and provides on-the-fly formatting. Chordie does not index songs against artists'/composers' will. To remove this song please click here.

This song is displayed as text-only. Transposing and tuning is only available for chordpro-songs.
Rate #1 of 5 versions

Jango Player

Login - add to songbook

SHARE PAGE  




You need to log in to post comments