Guitar Tabs, Chords and Lyrics
Server problems seems to be fixed. Chordie has been experiencing problems with songs disappearing. These issues now seems to be fixed, but still verifying the fix. If you find anything strange, please email admin@chordie.com.


Why I Like the Robins   Hum

 
 B |---------------------------------|
 G |-------------0---0---0---0---0---|
 D |-------------4---4---4---4---4---|
 A |-5--5-5-5-5--0---0---0---0---0---|
 D |-0--0-0-0-0-(0)-(0)-(0)-(0)-(0)--|
 B |---0----0---0---0---0---0--------|
 G |---6----6---6---6---6---6---0-0--|
 D |--(0)--(0)-(0)-(0)-(0)-(0)--4-4--|
 A |----------------------------0-0--|

 


 


 Guitar 2 ( riff 1):


 


 

 
 A |--5-5-5-5--|
 D |--0-0-0-0--|

 


 


 [this part is probably both guitar 2 and bass at


 one point or another, but this is the part that's there]


 


 [Play tbis tbrougb tbe 1st verse:] 


 This distance outside of you (I find in you) [maybe]


 comes into focus, collapses away lovingly


 and hands to the glass and eyes to the sky


 moves to the south, she waits to see


 She's looking for birds she met last fall


 said they would come back different than all


 She's waiting for six who know about sound


 if we promise to come back upside down


 [Here, some soaring sound effects come in that


 I personally like a lot]


 


 [The next section of the verses brings in a


 different guitar 2 part...keep playing the main riff


 along with this part...]


 


 Guitar 2 (riff 2):


 

 
 E |------5-------------------------------------------|
 B |------2--2--2-2-2-2-------------------------------|
 G |------2--2--2-2-2-2-------6----6---6---6---6---6--|
 D |----4-----------4-4---4--(0)--(0)-(0)-(0)-(0)-(0)-|
 A |--5-----------------5-----------------------------|
 D |-(0)----------------------------------------------|

 


 


 And i like your raindrop collector


 splash in my eyes and makes everything else


 look like you


 So hand me the glasses and teach me to use


 them, show me the window


 i wanna look too


 


 [Next part....Distortion] 


 


 Guitar 1 (riff 2):


 

 
 E |--0--0-0--0--0-0--0--0-0--0--0-0--|
 B |--3--3-3--3--3-3--3--3-3--3--3-3--|
 G |--2--2-2--2--2-2--2--2-2--2--2-2--|
 D |--0--0-0--0--0-0--0--0-0--0--0-0--|
 A |--0--0-0--0--0-0--0--0-0--0--0-0--|
 D |--0--0-0--0--0-0--0--0-0--0--0-0--|

 


 


 *


 

 
 E |--0--0-0--0--0-0--0--0-0--0--0-0--|
 B |--5--5-5--5--5-5--9--9-9--9--9-9--|
 G |--4--4-4--4--4-4--6--6-6--6--6-6--|
 D |--0--0-0--0--0-0--0--0-0--0--0-0--|
 A |--0--0-0--0--0-0--0--0-0--0--0-0--|
 D |--0--0-0--0--0-0--0--0-0--0--0-0--|

 


 


 [Guitars 1 and 2 play tbis riff 4 times] 


 and on the 3rd time...guitar 2 breaks off


 and plays this at the part on riff 2 with


 the asterick above it...]


 


 

 
 E |--5------------------------------------|
 B |--5------------------------------------|
 G |--6---(bring this note out the most)---|
 D |--5------------------------------------|
 A |--5------------------------------------|
 D |--5------------------------------------|

 


 ||=====strum this very furiously,======||


 ||===========kinda syncopated==========||


 


 

 
 E |----9----------------------------------|
 B |----9----------------------------------|
 G |----X-(about 12 times)----------------|
 D |---11----------------------------------|
 A |----0----------------------------------|

 


 ||===strum the same way as mentioned===||


 


 [Bere, play tbe main riff witb tbese lyrics:] 


 I'll take the glasses and cover for you


 You get some sleep and i'll stay til two


 I'm looking for six who know about sound


 who promised to come back upside


 


 [Next, while guitar 1 plays riff 2, play guitar 2


 plays this 4 times


 Guitar 2 (Riff 3):


 


 

 
 A |--0--0-0-0-0--2--2-2-2-2--2--2-2-2-2--0-0--|
 D |--0--0-0-0-0--0--0-0-0-0--0--0-0-0-0--0-0--|

 


 


 [repeat guitar 1 riff 2 twice tben...] 


 Guitar 1 (Riff 3):


 


 

 
 G |-------------------------------------6-6-6--|
 D |--------------------------------------------|
 A |--------------------------------------------|
 D |--0--0-0-0-0--4--4-4-4-4--7--7-7-7-7--------|


Important: The song above is NOT stored on the Chordie server. The original song is hosted at www.guitaretab.com. Chordie works as a search engine and provides on-the-fly formatting. Chordie does not index songs against artists'/composers' will. To remove this song please click here.

This song is displayed as text-only. Transposing and tuning is only available for chordpro-songs.
Rate #1 of 5 versions

Login - add to songbook

SHARE PAGE  




You need to log in to post comments