Guitar Tabs, Chords and Lyrics
Server problems seems to be fixed. Chordie has been experiencing problems with songs disappearing. These issues now seems to be fixed, but still verifying the fix. If you find anything strange, please email admin@chordie.com.


A Youthful Existence  Hunter Valentine

A Youthful Existence - By Hunter Valentine
www.huntervalentine.com
D Bm G G* A F#m Em
 
 e|----------------------------------------------------|
 B|----------------------------------------------------|
 G|-----7-----------------------12------------11----9--|
 D|-----7--------9------5-------12-----7------11----9--|
 A|-----5--------9------5-------10-----7------9-----7--|
 E|--------------7------3--------------5---------------|

The G* chord is played only during the chorus with this riff:
 
 e|---------------------------------------------------|
 B|---------------------------------------------------|
 G|-----12----12--12--12--11--11--11------------------|
 D|-----12----12--12--12--12--12--12--12--12----------|
 A|-----10--------------------------------------------|
 E|---------------------------------------------------|

[D]I stay out late 'cause I don't wanna feel lonely
[Bm]This emptiness is starting to own me and
[G]I can't get out, I can't get [A]out
[D]I'll meet you later at that all night diner
[Bm]She's trying hard, I'm trying not to fight her and
[G]I can't get out, I can't get [A]out.
[G]Cause all my [A]friends got girlfriends
[G]Ther're telling me to [A]put this thing to an end
[G]But I just [A]can't cause I know I'll be [D]walking to a [A]place where I can't [G]stand...
Chorus
D A G*
There is some place left for you
[D]Some place [F#m]caught up in their [G]youth
D A G*
There is some place left for you
[D]I buy you drinks cause I think that you love me
[Bm]Turns out that you just want the company
[G]I'm feeling bad you look [A]sad
[D]I'm watching t.v on a late night Sunday
[Bm]Thinking 'bout how I just turned you away
[G]I'm feeling bad you look so [A]sad
[G]Cause all my [A]friends got girlfriends
[G]They're telling me to [A]put this thing to an end
[G]But I just [A]can't cause I know I'll be [D]walking to a [A]place where I can't [G]stand...
(Chorus)
Break: D Em F#m (x2)
[D]And you say you can't have it
And you say you can't have it
And you say you can't have it
Any other [Bm]way but mine
I feel that we're losing time
and I [G]know you're lost along the way
this t[A]ime, this time this time this time
Chorusx2

Important: The song above is NOT stored on the Chordie server. The original song is hosted at www.guitaretab.com. Chordie works as a search engine and provides on-the-fly formatting. Chordie does not index songs against artists'/composers' will. To remove this song please click here.

Text color:
Chord color:
Chord grids: 
Font size:    
Page size: 

A Bm D F#m G
Rate #1 of 2 versions

Login - add to songbook

SHARE PAGE  



You need to log in to post comments