Guitar Tabs, Chords and Lyrics
Server problems seems to be fixed. Chordie has been experiencing problems with songs disappearing. These issues now seems to be fixed, but still verifying the fix. If you find anything strange, please email admin@chordie.com.


Rapture  Hurt

Band: Pedro The Lion
Song: "Rapture(acoustic)"
Album: Control
I've never actually seen David Bazan play this acoustic,
but I play a lot of acoustic and this is a cover I did.
Tuning: standard
Chords:
[G] [D] [Em] [C] [C/B] [Am] [F] [B7]  
 
 e|--3--|--2--|--0--|--0--|--0--|--0--|--1--|--2--|
 B|--3--|--3--|--0--|--1--|--1--|--1--|--1--|--0--|
 G|--0--|--2--|--0--|--0--|--0--|--2--|--2--|--2--|
 D|--0--|--0--|--2--|--2--|--0--|--2--|--3--|--1--|
 A|--2--|--0--|--2--|--3--|--2--|--0--|--3--|--2--|
 E|--3--|-----|--0--|-----|-----|-----|--1--|-----|

Riff A:
[G] [C]  
 
 e|-----------------|-----------------|
 B|-----------------|-----------------|
 G|-----------------|-----------------| 2x
 D|-4-4-x-4h5-5-x-x-|-9-9-x-7-7-7-x-x-|
 A|-5-5-x-5-5-5-x-x-|-1010x-101010x-x-|
 E|-3-3-x-3-3-3-x-x-|-8-8-x-8-8-8-x-x-|

Verse 1: "This is how we multiply..."
[D] [Em]  
 
 e|-2-2-2-2-2-2-2-2-2-2-2-2-2-2-2-2-|-0-0-0-0-0-0-0-0-|-3-3-3-3-3-3-3-3-|
 B|-3-3-3-3-3-3-3-3-3-3-3-3-3-3-3-3-|-0-0-0-0-0-0-0-0-|-3-3-3-3-3-3-3-3-|
 G|-2-2-2-2-2-2-2-2-2-2-2-2-2-2-2-2-|-0-0-0-0-0-0-0-0-|-0-0-0-0-0-0-0-0-|
 D|-0-0-0-0-0-0-0-0-0-0-0-0-0-0-0-0-|-2-2-2-2-2-2-2-2-|-0-0-0-0-0-0-0-0-|
 A|-0-0-0-0-0-0-0-0-0-0-0-0-0-0-0-0-|-2-2-2-2-2-2-2-2-|-2-2-2-2-2-2-2-2-|
 E|---------------------------------|-0-0-0-0-0-0-0-0-|-3-3-3-3-3-3-3-3-|

[C] [C/B] [C] [C/B]  
 
 e|-0-0-0-0-0-0-0-0-|-0-0-0-0-0-0-0-0-|-0-0-0-0-0-0-0-0-|-0-0-0-0-0-0-0-0-|
 B|-1-1-1-1-1-1-1-1-|-1-1-1-1-1-1-1-1-|-1-1-1-1-1-1-1-1-|-1-1-1-1-1-1-1-1-|
 G|-0-0-0-0-0-0-0-0-|-0-0-0-0-0-0-0-0-|-0-0-0-0-0-0-0-0-|-0-0-0-0-0-0-0-0-|
 D|-2-2-2-2-2-2-2-2-|-0-0-0-0-0-0-0-0-|-2-2-2-2-2-2-2-2-|-0-0-0-0-0-0-0-0-|
 A|-3-3-3-3-3-3-3-3-|-2-2-2-2-2-2-2-2-|-3-3-3-3-3-3-3-3-|-2-2-2-2-2-2-2-2-|
 E|-----------------|-----------------|-----------------|-----------------|

Verse 2: "This is how our bodies move..."
[G] [D]  
 
 e|-3-3-3-3-3-3-3-3-3-3-3-3-3-3-3-3-|-2-2-2-2-2-2-2-2-2-2-2-2-2-2-2-2-|
 B|-3-3-3-3-3-3-3-3-3-3-3-3-3-3-3-3-|-3-3-3-3-3-3-3-3-3-3-3-3-3-3-3-3-|
 G|-0-0-0-0-0-0-0-0-0-0-0-0-0-0-0-0-|-2-2-2-2-2-2-2-2-2-2-2-2-2-2-2-2-|
 D|-0-0-0-0-0-0-0-0-0-0-0-0-0-0-0-0-|-0-0-0-0-0-0-0-0-0-0-0-0-0-0-0-0-|
 A|-2-2-2-2-2-2-2-2-2-2-2-2-2-2-2-2-|-0-0-0-0-0-0-0-0-0-0-0-0-0-0-0-0-|
 E|-3-3-3-3-3-3-3-3-3-3-3-3-3-3-3-3-|---------------------------------|

[Em] [G]  
 
 e|-0-0-0-0-0-0-0-0-|-3-3-3-3-3-3-3-3-|
 B|-0-0-0-0-0-0-0-0-|-3-3-3-3-3-3-3-3-|
 G|-0-0-0-0-0-0-0-0-|-0-0-0-0-0-0-0-0-|
 D|-2-2-2-2-2-2-2-2-|-0-0-0-0-0-0-0-0-|
 A|-2-2-2-2-2-2-2-2-|-2-2-2-2-2-2-2-2-|
 E|-0-0-0-0-0-0-0-0-|-3-3-3-3-3-3-3-3-|

[C] [C/B] [C] [C/B]  
 
 e|-0-0-0-0-0-0-0-0-|-0-0-0-0-0-0-0-0-|-0-0-0-0-0-0-0-0-|-0-0-0-0-0-0-0-0-|
 B|-1-1-1-1-1-1-1-1-|-1-1-1-1-1-1-1-1-|-1-1-1-1-1-1-1-1-|-1-1-1-1-1-1-1-1-|
 G|-0-0-0-0-0-0-0-0-|-0-0-0-0-0-0-0-0-|-0-0-0-0-0-0-0-0-|-0-0-0-0-0-0-0-0-|
 D|-2-2-2-2-2-2-2-2-|-0-0-0-0-0-0-0-0-|-2-2-2-2-2-2-2-2-|-0-0-0-0-0-0-0-0-|
 A|-3-3-3-3-3-3-3-3-|-2-2-2-2-2-2-2-2-|-3-3-3-3-3-3-3-3-|-2-2-2-2-2-2-2-2-|
 E|-----------------|-----------------|-----------------|-----------------|

[Am] [G] [D]  
 
 e|-0-0-0-0-0-0-0-0-0-0-0-0-|-3-3-3-3-|-2-2-2-2-2-2-2-2-|
 B|-1-1-1-1-1-1-1-1-1-1-1-1-|-3-3-3-3-|-3-3-3-3-3-3-3-3-|
 G|-2-2-2-2-2-2-2-2-2-2-2-2-|-0-0-0-0-|-2-2-2-2-2-2-2-2-|
 D|-2-2-2-2-2-2-2-2-2-2-2-2-|-0-0-0-0-|-0-0-0-0-0-0-0-0-|
 A|-0-0-0-0-0-0-0-0-0-0-0-0-|-2-2-2-2-|-0-0-0-0-0-0-0-0-|
 E|-------------------------|-3-3-3-3-|-----------------|

[C] [C/B] [Em]  
 
 e|-0-0-0-0-|-0-0-0-0-|-0----|
 B|-1-1-1-1-|-1-1-1-1-|-0----|
 G|-0-0-0-0-|-0-0-0-0-|-0----|(let ring)
 D|-2-2-2-2-|-0-0-0-0-|-2----|
 A|-3-3-3-3-|-2-2-2-2-|-2----|
 E|---------|---------|-0----|

Riff A:
[G] [C]  
 
 e|-----------------|-----------------|
 B|-----------------|-----------------|
 G|-----------------|-----------------| 2x
 D|-4-4-x-4h5-5-x-x-|-9-9-x-7-7-7-x-x-|
 A|-5-5-x-5-5-5-x-x-|-1010x-101010x-x-|
 E|-3-3-x-3-3-3-x-x-|-8-8-x-8-8-8-x-x-|

Verse 3: "Gideon is in the drawer..."
[D] [Em]  
 
 e|-2-2-2-2-2-2-2-2-2-2-2-2-2-2-2-2-|-0-0-0-0-0-0-0-0-|-3-3-3-3-3-3-3-3-|
 B|-3-3-3-3-3-3-3-3-3-3-3-3-3-3-3-3-|-0-0-0-0-0-0-0-0-|-3-3-3-3-3-3-3-3-|
 G|-2-2-2-2-2-2-2-2-2-2-2-2-2-2-2-2-|-0-0-0-0-0-0-0-0-|-0-0-0-0-0-0-0-0-|
 D|-0-0-0-0-0-0-0-0-0-0-0-0-0-0-0-0-|-2-2-2-2-2-2-2-2-|-0-0-0-0-0-0-0-0-|
 A|-0-0-0-0-0-0-0-0-0-0-0-0-0-0-0-0-|-2-2-2-2-2-2-2-2-|-2-2-2-2-2-2-2-2-|
 E|---------------------------------|-0-0-0-0-0-0-0-0-|-3-3-3-3-3-3-3-3-|

[C] [C/B] [C] [C/B]  
 
 e|-0-0-0-0-0-0-0-0-|-0-0-0-0-0-0-0-0-|-0-0-0-0-0-0-0-0-|-0-0-0-0-0-0-0-0-|
 B|-1-1-1-1-1-1-1-1-|-1-1-1-1-1-1-1-1-|-1-1-1-1-1-1-1-1-|-1-1-1-1-1-1-1-1-|
 G|-0-0-0-0-0-0-0-0-|-0-0-0-0-0-0-0-0-|-0-0-0-0-0-0-0-0-|-0-0-0-0-0-0-0-0-|
 D|-2-2-2-2-2-2-2-2-|-0-0-0-0-0-0-0-0-|-2-2-2-2-2-2-2-2-|-0-0-0-0-0-0-0-0-|
 A|-3-3-3-3-3-3-3-3-|-2-2-2-2-2-2-2-2-|-3-3-3-3-3-3-3-3-|-2-2-2-2-2-2-2-2-|
 E|-----------------|-----------------|-----------------|-----------------|

Chorus 1: "Oh, my sweet rapture..."
[G] [C] [C/B]  
 
 e|-3-3-3-3-3-3-3-3-|-0-0-0-0-|-0-0-0-0-|
 B|-3-3-3-3-3-3-3-3-|-1-1-1-1-|-1-1-1-1-|
 G|-0-0-0-0-0-0-0-0-|-0-0-0-0-|-0-0-0-0-|
 D|-0-0-0-0-0-0-0-0-|-2-2-2-2-|-0-0-0-0-|
 A|-2-2-2-2-2-2-2-2-|-3-3-3-3-|-2-2-2-2-|
 E|-3-3-3-3-3-3-3-3-|---------|---------|

[Am] [D] [C]  
 
 e|-0-0-0-0-0-0-0-0-|-2-2-2-2-|-0-0-0-0-|
 B|-1-1-1-1-1-1-1-1-|-3-3-3-3-|-1-1-1-1-|
 G|-2-2-2-2-2-2-2-2-|-2-2-2-2-|-0-0-0-0-|
 D|-2-2-2-2-2-2-2-2-|-0-0-0-0-|-2-2-2-2-|
 A|-0-0-0-0-0-0-0-0-|-0-0-0-0-|-3-3-3-3-|
 E|-----------------|---------|---------|

[C/B] [C] [Am]  
 
 e|-0-0-0-0-0-0-0-0-|-0-0-0-0-0-0-0-0-|-0-0-0-0-0-0-0-0-|
 B|-1-1-1-1-1-1-1-1-|-1-1-1-1-1-1-1-1-|-1-1-1-1-1-1-1-1-|
 G|-0-0-0-0-0-0-0-0-|-0-0-0-0-0-0-0-0-|-2-2-2-2-2-2-2-2-|
 D|-0-0-0-0-0-0-0-0-|-2-2-2-2-2-2-2-2-|-2-2-2-2-2-2-2-2-|
 A|-2-2-2-2-2-2-2-2-|-3-3-3-3-3-3-3-3-|-0-0-0-0-0-0-0-0-|
 E|-----------------|-----------------|-----------------|

Riff A: Riff A-2:
[G] [C] [C#/C]  
 
 e|-----------------|-----------------|-----------------|
 B|-----------------|-----------------|-----------------|
 G|-----------------|-----------------|-----------------|
 D|-4-4-x-4h5-5-x-x-|-9-9-x-7-7-7-x-x-|-9-9-x-9-9-9-9-9-|
 A|-5-5-x-5-5-5-x-x-|-1010x-101010x-x-|-1010x-1010101010|
 E|-3-3-x-3-3-3-x-x-|-8-8-x-8-8-8-x-x-|-9-9-x-9-9-9-9-9-|

Verse 4: "Finally, a chance to breathe..."
[D] [B7] [Em] [G]  
 
 e|-2-2-2-2-2-2-2-2-|-2-2-2-2-2-2-2-2-|-0-0-0-0-0-0-0-0-|-3-3-3-3-3-3-3-3-|
 B|-3-3-3-3-3-3-3-3-|-0-0-0-0-0-0-0-0-|-0-0-0-0-0-0-0-0-|-3-3-3-3-3-3-3-3-|
 G|-2-2-2-2-2-2-2-2-|-2-2-2-2-2-2-2-2-|-0-0-0-0-0-0-0-0-|-0-0-0-0-0-0-0-0-|
 D|-0-0-0-0-0-0-0-0-|-1-1-1-1-1-1-1-1-|-2-2-2-2-2-2-2-2-|-0-0-0-0-0-0-0-0-|
 A|-0-0-0-0-0-0-0-0-|-2-2-2-2-2-2-2-2-|-2-2-2-2-2-2-2-2-|-2-2-2-2-2-2-2-2-|
 E|-----------------|-----------------|-0-0-0-0-0-0-0-0-|-3-3-3-3-3-3-3-3-|

[C] [C/B] [C] [C/B]  
 
 e|-0-0-0-0-0-0-0-0-|-0-0-0-0-0-0-0-0-|-0-0-0-0-0-0-0-0-|-0-0-0-0-0-0-0-0-|
 B|-1-1-1-1-1-1-1-1-|-1-1-1-1-1-1-1-1-|-1-1-1-1-1-1-1-1-|-1-1-1-1-1-1-1-1-|
 G|-0-0-0-0-0-0-0-0-|-0-0-0-0-0-0-0-0-|-0-0-0-0-0-0-0-0-|-0-0-0-0-0-0-0-0-|
 D|-2-2-2-2-2-2-2-2-|-0-0-0-0-0-0-0-0-|-2-2-2-2-2-2-2-2-|-0-0-0-0-0-0-0-0-|
 A|-3-3-3-3-3-3-3-3-|-2-2-2-2-2-2-2-2-|-3-3-3-3-3-3-3-3-|-2-2-2-2-2-2-2-2-|
 E|-----------------|-----------------|-----------------|-----------------|

Bridge: "We've gone too far..."
[G] [B7] [Em] [F]  
 
 e|-3-3-3-3-3-3-3-3-|-2-2-2-2-2-2-2-2-|-0-0-0-0-0-0-0-0-|-1-1-1-1-1-1-1-1-|
 B|-3-3-3-3-3-3-3-3-|-0-0-0-0-0-0-0-0-|-0-0-0-0-0-0-0-0-|-1-1-1-1-1-1-1-1-|
 G|-0-0-0-0-0-0-0-0-|-2-2-2-2-2-2-2-2-|-0-0-0-0-0-0-0-0-|-2-2-2-2-2-2-2-2-|
 D|-0-0-0-0-0-0-0-0-|-1-1-1-1-1-1-1-1-|-2-2-2-2-2-2-2-2-|-3-3-3-3-3-3-3-3-|
 A|-2-2-2-2-2-2-2-2-|-2-2-2-2-2-2-2-2-|-2-2-2-2-2-2-2-2-|-3-3-3-3-3-3-3-3-|
 E|-3-3-3-3-3-3-3-3-|-----------------|-0-0-0-0-0-0-0-0-|-1-1-1-1-1-1-1-1-|

[Em] [C]  
 
 e|-0-0-0-0-0-0-0-0-|-0-0-0-0-0-0-0-0-|
 B|-0-0-0-0-0-0-0-0-|-1-1-1-1-1-1-1-1-|
 G|-0-0-0-0-0-0-0-0-|-0-0-0-0-0-0-0-0-| 2x
 D|-2-2-2-2-2-2-2-2-|-2-2-2-2-2-2-2-2-|
 A|-2-2-2-2-2-2-2-2-|-3-3-3-3-3-3-3-3-|
 E|-0-0-0-0-0-0-0-0-|-----------------|

e|-[G]3----|
B|-3----|
G|-0----|(let ring)
D|-0----|
A|-2----|
E|-3----|
Bridge 2: "This feels so good..."
[C]  
 
 e|-----------------|-----------------|-----------------|-----------------|
 B|-----------------|-----------------|-----------------|-----------------|
 G|-----------------|-----------------|-----------------|-----------------|
 D|-4-4-4-4-5-5-5-5-|-4-4-4-4-5-5-5-5-|-4-4-4-4-5-5-5-5-|-4-4-4-4-5-5-5-5-|
 A|-3-3-3-3-3-3-3-3-|-3-3-3-3-3-3-3-3-|-3-3-3-3-3-3-3-3-|-3-3-3-3-3-3-3-3-|
 E|-----------------|-----------------|-----------------|-----------------|

[G] [G] [G] [G]  
 
 e|-----------------|-----------------|-----------------|-----------------|
 B|-----------------|-----------------|-----------------|-----------------|
 G|-----------------|-----------------|-----------------|-----------------|
 D|-----------------|-----------------|-----------------|-----------------|
 A|-5-5-5-5-5-5-5-5-|-5-5-5-5-5-5-5-5-|-5-5-5-5-5-5-5-5-|-5-5-5-5-5-5-5-5-|
 E|-3-3-3-3-3-3-3-3-|-3-3-3-3-3-3-3-3-|-3-3-3-3-3-3-3-3-|-3-3-3-3-3-3-3-3-|

[C]  
 
 e|-----------------|-----------------|-----------------|-----------------|
 B|-----------------|-----------------|-----------------|-----------------|
 G|-----------------|-----------------|-----------------|-----------------|
 D|-4-4-4-4-5-5-5-5-|-4-4-4-4-5-5-5-5-|-4-4-4-4-5-5-5-5-|-4-4-4-4-5-5-5-5-|
 A|-3-3-3-3-3-3-3-3-|-3-3-3-3-3-3-3-3-|-3-3-3-3-3-3-3-3-|-3-3-3-3-3-3-3-3-|
 E|-----------------|-----------------|-----------------|-----------------|

e|-[Em]0----|
B|-0----|
G|-0----|(let ring)
D|-2----|
A|-2----|
E|-0----|
Chorus 2: "Oh, my sweet rapture..."
[G] [C] [C/B]  
 
 e|-3-3-3-3-3-3-3-3-|-0-0-0-0-|-0-0-0-0-|
 B|-3-3-3-3-3-3-3-3-|-1-1-1-1-|-1-1-1-1-|
 G|-0-0-0-0-0-0-0-0-|-0-0-0-0-|-0-0-0-0-|
 D|-0-0-0-0-0-0-0-0-|-2-2-2-2-|-0-0-0-0-|
 A|-2-2-2-2-2-2-2-2-|-3-3-3-3-|-2-2-2-2-|
 E|-3-3-3-3-3-3-3-3-|---------|---------|

[Am] [D] [C]  
 
 e|-0-0-0-0-0-0-0-0-|-2-2-2-2-|-0-0-0-0-|
 B|-1-1-1-1-1-1-1-1-|-3-3-3-3-|-1-1-1-1-|
 G|-2-2-2-2-2-2-2-2-|-2-2-2-2-|-0-0-0-0-|
 D|-2-2-2-2-2-2-2-2-|-0-0-0-0-|-2-2-2-2-|
 A|-0-0-0-0-0-0-0-0-|-0-0-0-0-|-3-3-3-3-|
 E|-----------------|---------|---------|

[C/B] [C] [Am]  
 
 e|-0-0-0-0-0-0-0-0-|-0-0-0-0-0-0-0-0-|-0-0-0-0-0-0-0-0-|
 B|-1-1-1-1-1-1-1-1-|-1-1-1-1-1-1-1-1-|-1-1-1-1-1-1-1-1-|
 G|-0-0-0-0-0-0-0-0-|-0-0-0-0-0-0-0-0-|-2-2-2-2-2-2-2-2-|
 D|-0-0-0-0-0-0-0-0-|-2-2-2-2-2-2-2-2-|-2-2-2-2-2-2-2-2-|
 A|-2-2-2-2-2-2-2-2-|-3-3-3-3-3-3-3-3-|-0-0-0-0-0-0-0-0-|
 E|-----------------|-----------------|-----------------|

"singing, "hallelujah"..."
[G] [C] [C/B]  
 
 e|-3-3-3-3-3-3-3-3-|-0-0-0-0-|-0-0-0-0-|
 B|-3-3-3-3-3-3-3-3-|-1-1-1-1-|-1-1-1-1-|
 G|-0-0-0-0-0-0-0-0-|-0-0-0-0-|-0-0-0-0-|
 D|-0-0-0-0-0-0-0-0-|-2-2-2-2-|-0-0-0-0-|
 A|-2-2-2-2-2-2-2-2-|-3-3-3-3-|-2-2-2-2-|
 E|-3-3-3-3-3-3-3-3-|---------|---------|

[Am] [D] [C]  
 
 e|-0-0-0-0-0-0-0-0-|-2-2-2-2-|-0-0-0-0-|
 B|-1-1-1-1-1-1-1-1-|-3-3-3-3-|-1-1-1-1-|
 G|-2-2-2-2-2-2-2-2-|-2-2-2-2-|-0-0-0-0-|
 D|-2-2-2-2-2-2-2-2-|-0-0-0-0-|-2-2-2-2-|
 A|-0-0-0-0-0-0-0-0-|-0-0-0-0-|-3-3-3-3-|
 E|-----------------|---------|---------|

[C/B] [C]  
 
 e|-0-0-0-0-0-0-0-0-|-0-0-0-0-0-0-0-0-0-0-0-0-0-0-0-0-|
 B|-1-1-1-1-1-1-1-1-|-1-1-1-1-1-1-1-1-1-1-1-1-1-1-1-1-|
 G|-0-0-0-0-0-0-0-0-|-0-0-0-0-0-0-0-0-0-0-0-0-0-0-0-0-|
 D|-0-0-0-0-0-0-0-0-|-2-2-2-2-2-2-2-2-2-2-2-2-2-2-2-2-|
 A|-2-2-2-2-2-2-2-2-|-3-3-3-3-3-3-3-3-3-3-3-3-3-3-3-3-|
 E|-----------------|---------------------------------|

End On:
e|-[G]3-|
B|-3-|
G|-0-|
D|-0-|
A|-2-|
E|-3-|
lyrics:
This is how we multiply
Pity that it's not my wife
The friction of skin
The trembling sigh
This is how our bodies move
With everything that we could lose
The sheets and sweat
The seed and the spill
The bitter pill, yet undiscovered
Gideon is in the drawer
Clothes scattered on the floor
She's arching her back
She screams for more
Oh, my sweet rapture
I hear Jesus calling me home
Finally, a chance to breathe
Reaching for the fallen sheets
Collapsing in a glowing heap
We've gone too far
We've done too much
We have to quit it
Just one more touch
Just one more kiss
Please, ten more minutes
This feels so good
Just barely moving
The tension building
Our bodies working
To reach the goal
Oh, my sweet rapture
I hear Jesus and the angels
singing, "hallelujah!"
Calling me to enter the promised land

Important: The song above is NOT stored on the Chordie server. The original song is hosted at www.guitaretab.com. Chordie works as a search engine and provides on-the-fly formatting. Chordie does not index songs against artists'/composers' will. To remove this song please click here.

Text color:
Chord color:
Chord grids: 
Font size:    
Page size: 

Am B7 C C#/C C/B D Em F G
Rate #1 of 3 versions

Jango Player

Login - add to songbook

SHARE PAGE  




You need to log in to post comments