Guitar Tabs, Chords and Lyrics
Server problems seems to be fixed. Chordie has been experiencing problems with songs disappearing. These issues now seems to be fixed, but still verifying the fix. If you find anything strange, please email admin@chordie.com.


Tamed (Filled with Fear)  Hypocrisy

Tamed-Filled With Fear - Hypocrisy - A Taste of Extreme Divinity
Tuned Half-Step Down.
Intro.
S S E E S S S S S S Q S S E E S S S S S S E E
 
 D#||-------------------------------|---------------------------------|
 A#||-------------------------------|---------------------------------|
 F#||--------------------------5----|---------------------------------|
 C#||------9--10------9-10-----5----|------9--10------9-10------------|
 G#||------7---8------7--8-----3----|------7---8------7--8-----10--9--|
 D#||--0-0--------0-0------0-0------|--0-0--------0-0------0-0--------|

S S E E S S S S S S Q S S E E S S S S S S S S S S
 
 -------------------------------|-------------------------------------|
 -------------------------------|-------------------------------------|
 --------------------------5----|-------------------------------------|
 ------9--10------9-10-----5----|------9--10--------------------------| x2
 ------7---8------7--8-----3----|------7---8------10-10-10-10-9-9-9-9-|
 --0-0--------0-0------0-0------|--0-0--------0-0---------------------|

Verse.
PM PM PM PM PM PM PM PM PM PM PM PM
T T S E E T T S E E E E T T S E E T T S E E E E
 
 --------------------------------------|--------------------------------------|
 --------------------------------------|--------------------------------------|
 --------------------------------------|--------------------------------------|
 -----------9--5-----------9--5--2--4--|-----------9--5-----------9--5--2--4--|
 --------------------------------------|--------------------------------------|
 --0--0--0--------0--0--0--------------|--0--0--0--------0--0--0--------------|

PM PM PM PM PM PM PM PM PM PM PM PM
T T S E E T T S E E E E T T S E E T T S E E E E
 
 --------------------------------------|--------------------------------------|
 --------------------------------------|--------------------------------------|
 --------------------------------------|--------------------------------------|
 -----------9--5-----------9--5--2--4--|-----------9--5-----------9--5--2--4--|
 --------------------------------------|--------------------------------------|
 --0--0--0--------0--0--0--------------|--0--0--0--------0--0--0--------------|

PM PM PM PM PM PM PM PM PM PM PM
T T S E E T T S E E E E T T S E E S S E E Q
 
 --------------------------------------|----------------------------------|
 --------------------------------------|----------------------------------|
 -----------4--------------4-----------|-----------4-----------7--5--4----|
 --------------5--------------5--2--4--|--------------5-------------------|
 --3--3--3--------3--3--3--------------|--3--3--3--------3--3-------------|
 --------------------------------------|----------------------------------|

PM PM PM PM PM PM PM PM PM
T T S E E T T S E E E E T T S E E E E E Q
 
 --------------------------------------|-------------------------------|
 --------------------------------------|-------------------------------|
 -----------4--------------4-----------|--------------7--5--4--5--4----|
 --------------5--------------5--2--4--|-----------5-------------------|
 --3--3--3--------3--3--3--------------|--2--2--2----------------------|
 --------------------------------------|-------------------------------|

Pre Chorus.
PM PM PM PM PM PM PM PM PM PM
[E] [E] [E] [E] [E] [E] [E] [E] [E] [E] [E] [E] [E] [E] [E] [E]  
 
 --------------------------|--------------------------|
 --------------------------|--------------------------|
 --------------------------|--------------------------|
 --5--5--5--5--5--5--5--5--|--5--5--5--5--5--7--7--7--|
 --3--3--3--3--3--3--3--3--|--3--3--3--3--3--5--5--5--|
 --------------------------|--------------------------|

PM PM PM PM PM PM PM PM PM PM
[E] [E] [E] [E] [E] [E] [E] [E] [E] [E] [E] [E] [E] [E] [E] [E]  
 
 --------------------------|--------------------------|
 --------------------------|--------------------------|
 --------------------------|--------------------------|
 --9--------9--------9-----|--9--------9-----7--7--7--| x2
 --7--2--2--7--2--2--7--2--|--7--2--2--7--2--5--5--5--|
 -----0--0-----0--0-----0--|-----0--0-----0-----------|

Chorus.
S S S S S S S S S S S S S S S S S S S S S S S S S S S S S S S S
 
 ----------------------------------|----------------------------------|
 ----------------------------------|----------------------------------|
 ----------------------------------|----------------------------------|
 --------------------------9-9-7-7-|--7-7-7-7-9-9-5-5-5-5-5-5-4-4-4-4-|
 --7-7-7-7-7-7-7-7-7-7-7-7---------|----------------------------------|
 ----------------------------------|----------------------------------|

S S S S S S S S S S S S S S S S S S S S S S S S S S S S S S S S
 
 ------------------------------------|------------------------------------------|
 ------------------------------------|------------------------------------------|
 --------------9-9-9-9---------------|------------------------------------------|
 ----------------------9-9-9-9-10-10-|--10-10-10-10-10-10-10-10-7-7-7-7-7-7-7-7-|
 --7-7-7-7-7-7-----------------------|------------------------------------------|
 ------------------------------------|------------------------------------------|

Thingy.
W W W W
 
 -------------------|-------------------|-------------------|-------------------|
 -------------------|-------------------|-------------------|-------------------|
 -------------------|-------------------|-------------------|-------------------|
 --2----------------|--L----------------|--L----------------|--L----------------|
 --2----------------|--L----------------|--L----------------|--L----------------|
 --0----------------|--L----------------|--L----------------|--L----------------|

PM PM PM PM PM PM PM PM PM PM PM PM PM PM PM PM
[E] [E] [E] [E] [E] [E] [E] [E] [E] [E] [E] [E] [E] [E] [E] [E]  
 
 --------------------------|--------------------------|
 --------------------------|--------------------------|
 --------------------------|--------------------------|
 --2--2--2--2--2--2--2--2--|--2--2--2--2--2--2--2--2--|
 --2--2--2--2--2--2--2--2--|--2--2--2--2--2--2--2--2--|
 --0--0--0--0--0--0--0--0--|--0--0--0--0--0--0--0--0--|

PM PM PM PM PM PM PM PM PM PM PM PM PM PM PM PM
[E] [E] [E] [E] [E] [E] [E] [E] [E] [E] [E] [E] [E] [E] [E] [E]  
 
 --------------------------|------------------------------|
 --------------------------|------------------------------|
 --------------------------|------------------------------|
 --2--2--2--2--2--2--2--2--|--------------10--9--9--9--9--|
 --2--2--2--2--2--2--2--2--|--10--10--10--10--9--9--9--9--|
 --0--0--0--0--0--0--0--0--|---8---8---8---8--7--7--7--7--|

W
E E E E E E E E E E E Q E E E
 
 ----------------------------|---------------------------|
 ----------------------------|---------------------------|
 ----------------------------|---------------------------|
 ----------------------------|---------------------------|
 -----7--10--7-----7--10--7--|--9--12--9--6----6--10--9--|
 --0------------0------------|---------------------------|

[E] [E] [E] [E] [E] [E] [E] [E] [E] [E] [E] [E] [E] [E] [E] [E]  
 
 ----------------------------|---------------------------|-----||
 ----------------------------|---------------------------|-----||
 ----------------------------|---------------------------|-----|| x2
 ----------------------------|---------------------------|-----||
 -----7--10--7-----7--10--7--|-----7--------10-----9-----|-----||
 --0------------0------------|--8-----8--7------7-----7--|-----||

Repeat.
This comes later at 3:00.
PM PM PM PM PM PM PM PM PM PM PM PM PM PM PM PM
[E] [E] [E] [E] [E] [E] [E] [E] [E] [E] [E] [E] [E] [E] [E] [E]  
 
 --------------------------|--------------------------|
 --------------------------|--------------------------|
 --------------------------|--------------------------|
 --2--2--2--2--2--2--2--2--|--2--2--2--2--4--4--2--4--|
 --2--2--2--2--2--2--2--2--|--2--2--2--2--4--4--4--4--|
 --0--0--0--0--0--0--0--0--|--0--0--0--0--2--2--4--4--|

PM PM PM PM PM PM PM PM PM PM PM PM PM PM PM PM
[E] [E] [E] [E] [E] [E] [E] [E] [E] [E] [E] [E] [E] [E] [E] [E]  
 
 --------------------------|--------------------------|
 --------------------------|--------------------------|
 --------------------------|--------------------------|
 --7--7--7--7--7--7--7--7--|--7--7--7--7--5--5--5--5--| x2
 --7--7--7--7--7--7--7--7--|--7--7--7--7--3--3--3--3--|
 --5--5--5--5--5--5--5--5--|--5--5--5--5--------------|


Important: The song above is NOT stored on the Chordie server. The original song is hosted at www.guitaretab.com. Chordie works as a search engine and provides on-the-fly formatting. Chordie does not index songs against artists'/composers' will. To remove this song please click here.

Text color:
Chord color:
Chord grids: 
Font size:    
Page size: 

E
Rate #1 of 2 versions

Login - add to songbook

SHARE PAGE  




You need to log in to post comments