Guitar Tabs, Chords and Lyrics
Server problems seems to be fixed. Chordie has been experiencing problems with songs disappearing. These issues now seems to be fixed, but still verifying the fix. If you find anything strange, please email admin@chordie.com.


Burn by the Cross   Hypocrisy

 
 ------------------------------------------------------------------------------
 ------------------------------------------------------------------------------
 --------------------------------------------5-4-3-----------------------------
 --------------------------------------5-4-3-----------------------------------
 --2-----2-----2-2-3-2-2-3-2-----2---------------------------------------------
 --0-000-0-000-0-0-1-0-0-1-0-000-0-000-----------------------------------------

 


 [#1A#] 


 

 
 ------------------------------------------------------------------------------
 ------------------------------------------------------------------------------
 ------------------------------------------------------------------------------
 --------------------------------------2-1-0-5-4-3-----------------------------
 --2-----2-----2-2-3-2-2-3-2-----2---------------------------------------------
 --0-000-0-000-0-0-1-0-0-1-0-000-0-000-----------------------------------------

 


 [#1B#] 


 

 
 ------------------------------------------------------------------------------
 ------------------------------------------------------------------------------
 ------------------------------------------------------------------------------
 --222222------------333333222222------------555555----------------------------
 --------333333222222------------333333222222----------------------------------
 ------------------------------------------------------------------------------

 


 [#2#] 


 

 
 ------------------------------------------------------------------------------
 ------------------------------------------------------------------------------
 ------------------------------3333------------------------33332222------------
 --2222333322225555222233332222----222233332222555522223333--------------------
 ------------------------------------------------------------------------------
 ------------------------------------------------------------------------------

 


 [#3#] 


 

 
 ------------------------------------------------------------------------------
 ------------------------------------------------------------------------------
 ------------------------------------------------------------------------------
 ------------------------------------------------------------------------------
 ------------------4444444433333333----------------6666666655555555------------
 --1111111122222222----------------1111111122222222----------------------------

 


 [#4#] 


 

 
 ------------------------------------------------------------------------------
 ------------------------------------------------------------------------------
 ------------------------------------------------------------------------------
 ------------------------------------------------------------------------------
 --2-2-2h3p2-2-2-2h3p2-2-2-2h3p2-2-3-3-----------------------------------------
 --0-0-------0-0-------0-0-------0-1-1-----------------------------------------

 


 x x x x x x x x x #5A#


 


 

 
 ------------------------------------------------------------------------------
 ------------------------------------------------------------------------------
 ------------------------------------------------------------------------------
 --------------------------------5-7-------------------------------------------
 --2-2-2h3p2-2-2-2h3p2-2-2-2h3p2-3-5-------------------------------------------
 --0-0-------0-0-------0-0-----------------------------------------------------

 


 x x x x x x #5B#


 


 

 
 ------------------------------------------------------------------------------
 ------------------------------------------------------------------------------
 ------------------------------------------------------------------------------
 --9999999955555555888888884444444499999999333333338888888888888888------------
 --7777777733333333666666662222222277777777333333336666666666666666------------
 ------------------------------------------------------------------------------

 


 [#6#] 


 

 
 ------------------------------------------------------------------------------
 ------------------------------------------------------------------------------
 ------------------------------------------------------------------------------
 --2---------------------------------------------------------------------------
 --2---------------------------------------------------------------------------
 --0---------------------------------------------------------------------------

 




 


 

 
 ------------------------------------------------------------------------------
 ------------------------------------------------------------------------------
 ------------------------------------------------------------------------------
 --4---5------4---5---9------4---5------2---4---2------------------------------
 --2---3------2---3---7------2---3------0---2---2------------------------------
 ---------------------0-------------------------0------------------------------

 


 [#7#] 


 

 
 ----------------------------|-------------------------------------------------
 ----------------------------|-------------------------------------------------
 ----------------------------|-------------------------------------------------
 --4---5---------------------|-------------------------------------------------
 --2---3---------------------|-------------------------------------------------
 ----------------------------|-------------------------------------------------

 




 


 

 
 ------------------------------------------------------------------------------
 ------------------------------------------------------------------------------
 ------------------------------------------------------------------------------
 ------------------------------------------------------------------------------
 ------------------------------------------------------------------------------
 ------------------------------------------------------------------------------


Important: The song above is NOT stored on the Chordie server. The original song is hosted at www.guitaretab.com. Chordie works as a search engine and provides on-the-fly formatting. Chordie does not index songs against artists'/composers' will. To remove this song please click here.

This song is displayed as text-only. Transposing and tuning is only available for chordpro-songs.
Rate #1 of 2 versions

Login - add to songbook

SHARE PAGE  




You need to log in to post comments