Guitar Tabs, Chords and Lyrics
Major upgrade!! After one year development the new version of Chordie is now online! Please give feedback.


Wild America  Iggy Pop

Okay, here is the correct tab.
Wild America - Iggy Pop
From the American Caesar album.
(Tabbed by Thomas N. for Ultimateguitar.com)
Intro:
[B] [G#]  
 
 |---------------------|
 |---------------------|
 |---------------------|

|-55555555-66666666---|
|-55555555-66666666---|
|-77777777-44444444---|
Riff (play during almost the entire song):
[Em]  
 
 |---------------------------|
 |------0-0-0----------------|
 |------0-0-0--------6b7-----|
 |-2--2-2-2-2----4-5-----4-5-|
 |-2--2-2-2-2--7-------------|
 |-0--0-0-0-0----------------|

Sometimes, during the chorus, after "Wi-ild A-me-ri-ca!" he plays this:
[Em]  
 
 |---------------------------|
 |------0-0-0----------------|
 |------0-0-0----------------|
 |-2--2-2-2-2----4-5-----4-5-|
 |-2--2-2-2-2--7-----6b7-----|
 |-0--0-0-0-0----------------|

Solo:
 
 |-----------------------------------------------------------|
 |-----------------------------------------------------------|
 |--------------------12b14r-12b14r-13b15-13-11---13-11------|
 |-13 (pick real fast)-------------------------13------13-11-|
 |-----------------------------------------------------------|
 |-----------------------------------------------------------|
 |-------------------------------------------------------------|
 |-------------------------------------------------------------|
 |-----------14brbr-14brbr---15b17-15b17-15b-12-15-15b17-15b18-|
 |-13 (pick)---------------------------------------------------|
 |-------------------------------------------------------------|
 |-------------------------------------------------------------|

|wah pedal on| |--a few times--|
 
 |-------------------------------------------------------------|
 |----13b15-15b17r15b17-15b17r15b17-15p12-15b17r15b17----------|
 |-12----------------------------------------------------------|
 |-------------------------------------------------------------|
 |-------------------------------------------------------------|
 |-------------------------------------------------------------|
 |---repeat this------|
 |--------------------------------------------------|
 |--14b--15b-16b---18b20r18b21----------------------|
 |--------------------------------------------------|
 |-|fast picking ------------------------15b17----|
 |--- & bending |--------------1313131313---------|
 |-----------------------------| pick fast |--------|

|-fast picking-|
 
 |----------------------------|
 |11-11-11-11-11---15b17-r-15-|
 |----------------------------|
 |----------------------------|
 |----------------------------|
 |----------------------------|

Indications:
2p0 : Pull-off from fret 2 to fret 0.
3b4 : Bend from 3rd fret to 4th.
3b4r3: Bend from 3rd to 4th then release back to 3rd.
The solo guitar comes back in sometimes, you can just jam on this solo it's quite much
same thing.
That's all, peace.

Important: The song above is NOT stored on the Chordie server. The original song is hosted at www.guitaretab.com. Chordie works as a search engine and provides on-the-fly formatting. Chordie does not index songs against artists'/composers' will. To remove this song please click here.

Text color:
Chord color:
Chord grids: 
Font size:    
Page size: 

B Em G#
Rate #1 of 4 versions

Jango Player

Login - add to songbook

SHARE PAGE  



You need to log in to post comments