Guitar Tabs, Chords and Lyrics
Server problems seems to be fixed. Chordie has been experiencing problems with songs disappearing. These issues now seems to be fixed, but still verifying the fix. If you find anything strange, please email admin@chordie.com.


Adrift  Jack Johnson

The tuning is in CFCFAC
Have fun! :D
Guitar 1
INTRO
 
 C|-----------2---------------2--------------2---------------2--|
 A|-3---------------2-------------------------------------------|
 F|-----2---------------2-----------4-----4---------2-----2-----|2x
 C|--------4---------------4-----------4---------------4--------|
 F|-------------------------------------------------------------|
 C|-0---------------0---------------0---------------0-----------|

VERSE
 
 C|-----------2---------------2--------------2---------------2------------5-----------|
 A|-3---------------2---------------------------------------------0-------------------|
 F|-----2---------------2-----------4-----4---------2-----2----------0-------0--------|
 C|--------4---------------4-----------4---------------4---------------0-------0------|
 F|-----------------------------------------------------------------------------------|
 C|-0---------------0---------------0---------------0-------------5-------------------|
 C|------9------7------5------------------2-----------------------2----------2------------5-------|
 A|-4/7-----7/6----6/4---4/2-----3------------2-----------------------------------0---------------|
 F|---------------------------------2------------2-------4----4------2---2-----------0-------0----|
 C|------------------------------------4-----------4--------4----------4---------------0-------0--|
 F|-----------------------------------------------------------------------------------------------|
 C|------------------------------0------------0----------0-----------0------------5---------------|
 C|------9------7------5------------------2-----------------------2----------2------------5-------|
 A|-4/7-----7/6----6/4---4/2-----3------------2-----------------------------------0---------------|
 F|---------------------------------2------------2-------4----4------2---2-----------0-------0----|
 C|------------------------------------4-----------4--------4----------4---------------0-------0--|
 F|-----------------------------------------------------------------------------------------------|
 C|------------------------------0------------0----------0-----------0------------5---------------|

CHORUS
 
 C|-----------2-------------------2--------------------------------------------------------2------|
 A|-2------------2-------2-----------2-------------------2--------2-------0--------3---------3----|
 F|-----2-----------2-------2-----------2------7-----7------2-------------------0-----2--------2--|
 C|--------2-------------------2------------------5------------2------------0h2---------4---------|
 F|-2--------------------2------------------5------------2-------------0--------------------------|
 C|--------------------------------------------------------------------------------0--------------|
 C|---------2-----|
 A|-2---------2---|
 F|----2--------2-|
 C|------2--------|
 F|-2-------------|
 C|---------------|

REPEAT INTRO 1x
VERSE IS THE SAME
Guitar 2(standard)
[C]Your voice is adrift I can't expect it
To sing to [F]me
As if I was the only one[C]
I'll follow [F]you
A leaf that's following the sun[C]
When will my [G]weight be too much for you?
When will these [Am]ideas really [G]be my own[F]?
This [C]moment keeps on moving[G]
We were never meant to hold on[C]
Well this was a scene worth waking up for
When I[F] woke up
You planted me in my own pot[C]
I don't kno[F]w why
But somehow it just feels so [C]wrong
When you [G]set I will be lonely
But when you [Am]rise again I'll have [G]become the [F]sun
And I will [C]shine down upon you[G]
As if you were the only one[C]
Your voice is your own I can't protect it
You'll have to [F]sing
A verse no one has ever known[C]
Don't be [F]afraid
Because no one ever sings alone[C]
Your weight will [G]never be too much for me
Your [Am]ideas have always [G]been your own[F]
And this [C]moment keeps on moving[G]
We were never meant to hold on[C]

Important: The song above is NOT stored on the Chordie server. The original song is hosted at www.guitaretab.com. Chordie works as a search engine and provides on-the-fly formatting. Chordie does not index songs against artists'/composers' will. To remove this song please click here.

Text color:
Chord color:
Chord grids: 
Font size:    
Page size: 

Am C F G
Rate #1 of 9 versions

Jango Player

Login - add to songbook

SHARE PAGE  




You need to log in to post comments