Guitar Tabs, Chords and Lyrics
Major upgrade!! After one year development the new version of Chordie is now online! Please give feedback.


Giving That Heaven Away  Jackson Browne

Giving that heaven away - Jackson Browne (Album: Time the Conqueror)
Intro:
| [Eb] | [Ab] | | | | | | | [Eb] | [Bb]
 
 e|--------------|----------------------|------------------------|
 B|----8-----9---|----------------------|----------------8-----6-|
 G|----8-----8---|----------------------|----------------8-----7-|
 D|----8-----10--|----------------------|----------------8-----8-|
 A|--------------|----------------------|------------------------|
 E|--------------|----------------------|------------------------|

| | | | [Eb]| | | | [Ab]
 
 e|--------------------|------------------------|
 B|--------------------|-4-------------8-----9--|
 G|--------------------|-3-------------8-----8--|
 D|--------------------|-5-------------8-----10-|
 A|--------------------|------------------------|
 E|--------------------|------------------------|

| | | | | | | [Eb] | [Bb] | | | | | | | |
 
 e|--------------------|------------------------|-----------|-----------|
 B|--------------------|---------------8-----6--|-----------|-----------|
 G|--------------------|---------------8-----7--|-----------|-----------|
 D|--------------------|---------------8-----8--|-----------|-----------|
 A|--------------------|------------------------|-----------|-----------|
 E|--------------------|------------------------|-----------|-----------|

[Ab]Pretty Nova, one year over
[Bb]Legal age of con[Eb]sent
[Ab]In the flower of sweet youth our
[Bb]Days of heaven were [Eb]spent
[Bb]Giving that heaven a[Eb]way
[Bb]Giving that heaven a[Eb]way
[Ab]Rock 'n' Roll, and freeing your soul, and
[Bb]Giving that heaven a[Eb]way
[Ab]I'm looking 'round for that sixties sound - [Bb]
Those days are [Eb]gone
[Ab]And all us acid dropping, world stopping, be bopping [Bb]
Freaks are just hanging on
[Ab]Little Nova, did you have to show the
[Bb]Whole world how to re[Eb]bel?
[Ab]Standing there with your long brown hair
Like a [Bb]cool breeze blowing through [Eb]hell
[Bb]Giving that heaven a[Eb]way
[Bb]Giving that heaven a[Eb]way
[Ab]Back in those days we all were so crazy
[Bb]Giving that heaven a[Eb]way
|Ab |Ab |Bb |Eb |
|Ab |Ab |Bb |Eb |
|Ab |Ab |Bb |Eb |
|Ab |Ab |Bb |Eb |
[Bb]Giving that heaven a[Eb]way
[Bb]Giving that heaven a[Eb]way
[Ab]Ooooooowh
[Bb]Giving that heaven a[Eb]way
[Ab]Seems like the whole world's at a fire sale [Bb]
But I might be [Eb]wrong
[Ab]With all the home shopping, Bling bling and hip hopping [Bb]
Maybe it's just going strong
[Ab]But hey now Nova, we both know the
[Bb]Ones who're always making it [Eb]pay
[Ab]Well any fool can sell a jewel
But an [Bb]angel will give it a[Eb]way
[Bb]Giving that heaven a[Eb]way
[Bb]Giving that heaven a[Eb]way
[Ab]Oooooooh I'm going go down singing
And [Bb]giving that heaven a[Eb]way
|Ab |Ab |Bb |Eb |
|Ab |Ab |Bb |Eb |
[Ab]Where did the day go in that Winnebago?
The [Bb]two of us hot as a [Eb]stove
[Ab]Fools for pleasure, digging for treasure
[Bb]Down in that Black Oak [Eb]grove
[Bb]Giving that heaven a[Eb]way
[Bb]Giving that heaven a[Eb]way
[Ab]Oooooooh
[Bb]Giving that heaven a[Eb]way
Coda:
|Ab |Ab |Bb |Eb | repeat
Transcribed by Gerard Koot (Amsterdam, The Netherlands) ? dec 2008
Email: gerardkoot@hotmail.com

Important: The song above is NOT stored on the Chordie server. The original song is hosted at www.guitaretab.com. Chordie works as a search engine and provides on-the-fly formatting. Chordie does not index songs against artists'/composers' will. To remove this song please click here.

Text color:
Chord color:
Chord grids: 
Font size:    
Page size: 

Ab Bb Eb
Rate #2 of 3 versions

Login - add to songbook

SHARE PAGE  




You need to log in to post comments