Guitar Tabs, Chords and Lyrics
Major upgrade!! After one year development the new version of Chordie is now online! Please give feedback.


Colors of the Sun  Jackson Browne

Colors of the Sun ? Jackson Browne
Intro:
Time: 4/4
A(no 3rd)
 
 |- continue pull/hammer D string 4/5----------- 

| | | | | | | |
 
 e|---------------------------------|--------------------------------|
 B|---------------------------------|--------------------------------|
 G|-2-------------------------------|--------------------------------|
 D|-2-----------7-5-5-4-5p4h5p4-----|--------------------------------|
 A|-0-------------------------------|--------------------------------|
 E|---------------------------------|--------------------------------|
 ---------------end-|

| | | | | | | |
 
 e|---------------------------------|--------------------------------|
 B|---------------------------------|--------------------------------|
 G|---------------------------------|--------------------------------|
 D|----------------------5--4-------|------------------------4-------|
 A|---------------------------7-5---|7-------------------------7-5---|
 E|---------------------------------|--------------------------------|

| | | | | | | |
 
 e|---------------------------------|--------------------------------|
 B|---------------------------------|--------------------------------|
 G|---------------------------------|--------------------------------|
 D|---------------------------------|--------------------------------|
 A|-7---------------5---4---5---4---|5-------------------------------|
 E|-------------5-7-----------------|----7-5-3-----------------------|

A(no 3rd)
Colors of the sun
A(no 3rd)/F
Flashing on the water top
A(no 3rd) A7sus4
Echo on the land
A(no 3rd)
Picking for a coin
A(no 3rd)/F
Many other tiny worlds
A(no 3rd)
Singing past my hand
[D]Awake to [F#m]understand you are not [Bm]dreaming[Bm/A]
It is not [G]seeming just to be this way[A]
[D]Dying men draw [F#m]numbers in the [Bm]air[Bm/A]
[G]Dream to conquer little bits of [D]time[A]
[D]Scuffle with the [F#m]crowd to get their [Bm]share[Bm/A]
And [G]fall behind their little bits of [A]time
|A(no 3rd)/F |A(no 3rd)/G |A |
|D F#m |Bm Bm/A |G |D A |
|Bm |G |E |A |A |
A(no 3rd)
Voices in the air
A(no 3rd)/F
Sympathetic harmony
A(no 3rd)
Coming from the trees
A(no 3rd)
Hanging at my door
A(no 3rd)/F
Many shiny surfaces
A(no 3rd)
Clinging in the breeze
Oh, [D]leave me where I [F#m]am I am not [Bm]losing[Bm/A]
If I am [G]choosing not to plan my [A]life
[D]Disillusioned [F#m]saviors search the [Bm]sky[Bm/A]
[G]Wanting to just to show someone the [D]way[A]
[D]Asking all the [F#m]people passing [Bm]by[Bm/A]
[G]Doesn't anybody
A A(no 3rd)/F A(no 3rd)/G A
want the way
I [D]say goodbye to [F#m]Joseph and Mar[Bm]ia[Bm/A]
They think I [G]see another [D]sky[A]
And [D]from my fallen [F#m]window I still [Bm]see them[Bm/A]
I'll never f[G]ree them from the [A]sky
Coda:
|A(no 3rd) |A(no 3rd) |A(no 3rd) |A(no 3rd) |
rep & fade
EADGBe
A(no 3rd) x022xx
A(no 3rd)/F 1x22xx
A(no 3rd)/G 3x22xx
A7sus4 x02233
Transcribed by Gerard Koot (Amsterdam, The Netherlands)
Email: gerardkoot@hotmail.com

Important: The song above is NOT stored on the Chordie server. The original song is hosted at www.guitaretab.com. Chordie works as a search engine and provides on-the-fly formatting. Chordie does not index songs against artists'/composers' will. To remove this song please click here.

Text color:
Chord color:
Chord grids: 
Font size:    
Page size: 

A Bm Bm/A D F#m G
Rate #3 of 6 versions

Login - add to songbook

SHARE PAGE  



You need to log in to post comments