Guitar Tabs, Chords and Lyrics
Major upgrade!! After one year development the new version of Chordie is now online! Please give feedback.


Your Smiling Face  James Taylor

Your Smiling Face - James Taylor (Album: ?JT? 1977)
Intro:
| | | | [A/B]| | | |
 
 E----------------------------|-0----------------------------|
 B----------------------------|-2----------------------------|
 G----------------------------|-2---------------------4------|
 D----------------------------|-------------------4-----6-6b-|
 A--------------------0---1-2-|-2-------------5h6------------|
 E----------------2-4---------|------------------------------|

| | | | [A/B]| | | |
 
 E----------------------------|-0----------------------------|
 B----------------------------|-2----------------------------|
 G----------------------------|-2---------------------4------|
 D----------------------------|-------------------4-----6-6b-|
 A--------------------0---1-2-|-2-------------5h6------------|
 E----------------2-4---------|------------------------------|

[A/B]| | | |
 
 E----------------------------|
 B----------------------------|
 G----------------------------|
 D----------------------------|
 A----------------------------|
 E----------------------------|

When[E]ever I [B/D#]see your [C#m7]smiling [E/B]face,
I [A]have to [E/G#]smile my[F#m7]self, be[A/B]cause I [E]love you.[C#m7] [F#m7] [A/B]
And [E]when you give [B/D#]me that [C#m7]pretty little [E/B]pout
it [A]turns me [E/G#]inside [F#m7]out.
There's [A/B]something [E]about you[C#m7] baby, I don't[F#m7] know.[B] [G#7/C]
[C#m]Isn't it a[G#m]mazing a [A]man like [A#dim]me can [B]feel [G#7/C]this [C#m7]way[E/B]
[A]Tell me how much [E/G#]longer. It will grow [F#m7]stronger every [A]day[B]
[G#m]Oh, how much [C#]longer
I [F#]thought I was in [C#/F]love just a [D#m7]couple of [F#/C#]times
be[B]fore with the [F#/A#]girl next [G#m7]door, but [B/C#]that was
[F#]long before I [D#m7]met you. Now I'm [G#m7]sure that I [B/C#]won't forget you.
And I [F#]thank my [C#/F]lucky [D#m7]stars [F#/C#] that
[B]you are [F#/A#]who you [G#m7]are and [B/C#]not just
a[F#]nother lovely [D#m7]lady sent down to [G#m7]break my [C#]heart.[Bb7/D]
[D#m]Isn't it a[A#m]mazing a [B]man like [Cdim]me can [C#]feel [Bb7/D]this [D#m7]way[F#/C#]
[B]Tell me how much [F#/A#]longer. It can grow [G#m7]stronger every day
| | | | [B/C#]| | | |
 
 E----------------------------|-2----------------------------|
 B----------------------------|-4----------------------------|
 G----------------------------|-4---------------------6------|
 D----------------------------|-------------------6-----8-8b-|
 A------------------1-2---3-4-|-4-------------7h8------------|
 E----------------4-----------|------------------------------|

| | | | [C#/D#]| | | |
 
 E----------------------------|-4----------------------------|
 B----------------------------|-6----------------------------|
 G----------------------------|-6---------------------8------|
 D----------------------------|-------------------8----10-8--|
 A------------------3-4---5-6-|-6-------------9h10-----------|
 E----------------6-----------|------------------------------|

how much longer
[Ab]No one can [Fm7]tell me that [Bbm7]I'm doing [Db/Eb]wrong today[Ab]
When[Fm7]ever I see you [Bbm7]smile at [Db/Eb]me
[Ab]No one can [Fm7]tell me that [Bbm7]I'm doing [Db/Eb]wrong today[Ab]
When[Fm7]ever I see your [Bbm7]smiling face my [Db/Eb]way
[Ab]No [Eb/G]one can [Fm7]tell me [Ab/Eb]that [Db]I'm [Ab/C]doing [Bbm7]wrong [Db/Eb]today
|Ab Fm7 |Bbm7 Eb7sus4 |
[Ab]No [Eb/G]one can [Fm7]tell me [Ab/Eb]that [Db]I'm [Ab/C]doing [Bbm7]wrong [Db/Eb]today
|Ab Fm7 |Bbm7 Db/Eb |
|Ab Eb/G Fm7 Ab/Eb |Db Ab/C Bbm7 Db/Eb |
|Ab Fm7 |Bbm7 Db/Eb |
|Ab Eb/G Fm7 Ab/Eb |Db Ab/C Bbm7 Db/Eb |
|Ab Fm7 |Bbm7 Db/Eb |
Rep & fade
Transcribed by Gerard Koot (Amsterdam, The Netherlands) ? sept 2008
gerardkoot@hotmail.com

Important: The song above is NOT stored on the Chordie server. The original song is hosted at www.guitaretab.com. Chordie works as a search engine and provides on-the-fly formatting. Chordie does not index songs against artists'/composers' will. To remove this song please click here.

Text color:
Chord color:
Chord grids: 
Font size:    
Page size: 

A A#dim A#m A/B Ab Ab/C B B/C# Bb7/D Bbm7 C# C#/F C#m C#m7 Cdim D#m D#m7 Db E E/B E/G# Eb/G F# F#/A# F#/C# F#m7 Fm7 G#7/C G#m G#m7
Rate #1 of 7 versions

Login - add to songbook

SHARE PAGE  




You need to log in to post comments