Guitar Tabs, Chords and Lyrics
Major upgrade!! After one year development the new version of Chordie is now online! Please give feedback.


Something's Wrong  James Taylor

SOMETHING'S WRONG - James Taylor
Tabbed by Barry Miles
Capo on 3rd fret
Intro (Greensleeves): |1.
 
 e|-0-----0-----0-------0---|--------0--2p0------------|---------------------0---|
 B|-----0---0-------0-------|o-1---3-1------3-0------0-|-1-----------0-2--------o|
 G|---2-------2---2---2---2-|----2--------------0--2---|-----2-2-1-2-1-0-0h1-----|
 D|-------------------------|----2---------------------|---2---------0-2-0-------|
 A|-0-----------0-----------|o-0-----3-----------------|-0-----------2-0-2------o|
 E|-------------------------|------3--------3-1-0------|-------1-----0---0-------|

|2. |1.
 
 e|-------------------0-|--------3-2-0--------------|---------------------0---|
 B|-1-0-------------0---|o-------------3---0------0-|-1-----------0-2--------o|
 G|-----2-1---1---0-----|------0-------------0--2---|-----2-2-1-2-1-0-0h1-----|
 D|---------4-----------|----2-----------0----------|---2---------0-2-0-------|
 A|-------------0-------|o-3-----3------------------|-0-----------2-0-2------o|
 E|-1-----0-------------|--------------3---1-0------|-------1-----0---0-----0-|

(Move capo to 5th fret)
 
 e|-------------------0-------------0------------------------------|
 B|-1-0-------------3---3---0---2----------------------------------|
 G|-----2-1---1---2-------2---2---2--------------------------------|
 D|---------4----------------------------------------2p0---0-2p0---|
 A|-------------0-----------0---------0------------------2-------2-|
 E|-1-----0--------------------------------------------------------|
 e|---0-0-------0-----0-2-----------|-------------0---------0--------|
 B|---0---0-2-3-----3-----3-0-1-3-0-|-----0---1-3---1---0-1-----1----|
 G|---------------2-----------------|-0-----0---------2-----------0--|
 D|-----------------0---------------|---2---------------------0------|
 A|---------0-----------------0-2---|---------3-----2-0--------------|
 E|-0-----------------------3-----3-|-0------------------------------|

Verse:
[Bm7]Something's [E7]wrong, that [Bm7]restless [E7]feeling's been
[Am7]Praying [D7]on your [G]mind
[Bm7]Roadmaps [E7]in a [Bm7]well-cracked [E7]ceiling
The [Am7]signs aren't [D7]hard to f[G]ind[G7]
Now [C]I'm not [D/F#]saying that you've [Bm7]been mistreated[Em7]
[Am7]No one?s [D7]hurt you, [G]nothing's wrong[G7]
A [C]moment's [D/F#]rest was [Bm7]all that you [Em7]needed
So [Am7]pack your [Bm7]things and [C]kindly m[D]ove along[(Gmaj7)]
Like [Em7]dust in the [A7]wind, you're [D7]gone forever[G]
You're [Em7]wind-blown le[C]aves, you're a [Am7]change in the [D7]weather
Just a town, like any other
A second brand new start
A third or fourth hand, wife or lover
No, you won't break her heart
Take some bacon, go on and leave your watch-chain
She won't count on nothing more
Wrap your hands around that small chain
And tip-toe barefoot out the door
Yes, something's wrong, that restless feeling's been
Praying on my mind
When things get bad, I'm bound to pack my bags
And just [Am7]leave [Bm7]them [C]all[D7] beh[Gmaj7]ind.

Important: The song above is NOT stored on the Chordie server. The original song is hosted at www.guitaretab.com. Chordie works as a search engine and provides on-the-fly formatting. Chordie does not index songs against artists'/composers' will. To remove this song please click here.

Text color:
Chord color:
Chord grids: 
Font size:    
Page size: 

A7 Am7 Bm7 C D D/F# D7 E7 Em7 G G7 Gmaj7
Rate #1 of 2 versions

Login - add to songbook

SHARE PAGE  




You need to log in to post comments