Guitar Tabs, Chords and Lyrics
Server problems seems to be fixed. Chordie has been experiencing problems with songs disappearing. These issues now seems to be fixed, but still verifying the fix. If you find anything strange, please email admin@chordie.com.


Me and My Guitar  James Taylor

 
 --------------------------------------------------------------

JAMES TAYLOR - ME AND MY GUITAR. From WALKING MAN album.
Released 1974.
 
 --------------------------------------------------------------

Tabbed by:PJVillanueva
Me and my guitar always in the same mood.
I am mostly flesh and bones and he is mostly wood.
Never does grow impatient for the changes I don't know, no.
If he can't go to heaven, maybe, I don't want to go, Lord.
Picture me in the key of E, call me Uncle John.
Any fool can easily see that we go back a long time.
Feel something like fine to me,
there's no such thing as the wrong time.
He hops up on my knee, singing,
get down, Pops, it's song time.
Every now and then I'm a lonely man,
it's nice to know that I've got a friend.
Puts his power right in my hand,
all I've got to do is the best I can, if I can.
I got a dog named David, got a bird named Dinah,
I got a birthmark on my thigh in the shape of Mainland China.
Got a somewhat southern accent cause I come from Carolina,
And if you want to find us she'll be walking right behind you.
I hear horns, I hear voices, I hear strings.
Seems I was born with too many choices.
Now what am I gonna do with all these extra things,
as they serve to confuse me, really.
It's me and my guitar, essentially me and my guitar.
Oh, maybe a few friends fall by for tea,
a little bit of ?who do you love??
But pay no attention to the man behind the curtain,
it's me and my guitar.
Having fun, boogie-woogie, Got to, uh-huh, me and my guitar.
 
 e|------- ------- ------- -------|------- ------- ------- -------|
 B|-------------------------------|-------------------------------|
 G|-------------------------------|-------------------------------|
 D|-------------------------------|-------------------------------|
 A|----------------2-------4------|5---4---2----------------------|
 E|0-------2/4--------------------|------------3---4---3---2------|

[E7] [E7] [B7]  
 
 e|------- ------- --0---- ----0--|------- ------- ------- --0----|
 B|-------------------------------|-------------------------------|
 G|0H1---2-----0H1---------2------|0H1---2-----0H1---------2------|
 D|------------0------------------|-------------------------------|
 A|--------2---------------2------|--------2---------------2---2--|
 E|0---------------0--------------|0---------------0--------------|

[D] [A]  
 
 e|------- ------- ----0-- -------|------- ------- ------- -------|
 B|------------------------0------|3-------2----------------------|
 G|0H1---2-----0H1----------------|2-------2----------------------|
 D|-------------------------------|4-------2-----2----------------|
 A|--------2----------------------|0-------0----------------------|
 E|0---------------0-----------0--|----------------0---2---3-4----|
 e|------- ------- ------- -------|------- ------- 4---5-- 6-7----|
 B|-------------------------------|-------------------------------|
 G|-------------------------------|------------2/4-----5---6-7----|
 D|-------------------------------|-------------------------------|
 A|-------------------------------|-------------------------------|
 E|-------------------------------|-------------------------------|

00:15
 
 e|------- ------- --0---- ----0--|------- ------- ----0-- -------|
 B|-------------------------------|-------------------------------|
 G|0H1---2-----0H1---------2------|0H1---2-----1-----------2------|
 D|-------------------------------|--------0----------------------|
 A|--------2---------------2------|--------2---------------2------|
 E|0---------------0--------------|0---------------0--------------|

Me and my guitar always in the same mood.
 
 e|------- ------- ------- -------|------- ------- ------- -------|
 B|-------------------------------|-------------------------------|
 G|-------------------------------|-------------------------------|
 D|-------------------------------|----------------2/4-----2------|
 A|----------------2/4-----2------|-------------------------------|
 E|0-------0----------------------|0-------0----------------------|
 e|------- ------- --0---- -------|------- ------- ------- -------|
 B|-------------------------------|-------------------------------|
 G|0H1---2-----0H1---------2------|0H1---2-----1------------------|
 D|-------------------------------|-------------------------------|
 A|------------------------2------|-------------------------------|
 E|0-------0-------0--------------|0-------0-------4---3---2-0----|

I am mostly flesh bones he is mostly wood.
[and] [and]  
 
 e|------- ------- ------- -------|------- ------- 7---6-- 5-4----|
 B|-------------------------------|-------------------------------|
 G|-------------------------------|----------------7---6---5-4----|
 D|-------------------------------|-------------------------------|
 A|----------------2/4-----2------|-------------------------------|
 E|0-------0----------------------|0-------0----------------------|
 e|------- ------- --0---- -------|------- ----0--|
 B|-------------------------------|--------0------|
 G|0H1---2-----0H1---------2------|1--------------|
 D|-------------------------------|---------------|
 A|------------------------2------|---------------|
 E|0-------0-------0--------------|0--------------|

Never grow impatient for the changes I don't
does
 
 e|------- ------- ------- -------|------- -------|
 B|-------------------------------|---------------|
 G|-------------------------------|---------------|
 D|-------------------------------|---------------|
 A|----------------2/4-----2------|---------------|
 E|0-------0----------------------|0--------------|

(.
[Gmaj9]  
 
 e|5------ ------- ------- -------|
 B|7------------------------------|
 G|7------------------------------|
 D|5------------------------------|
 A|-------------------------------|
 E|-------------------------------|

know, no If
 
 e|------- ----5-- ------- -------|
 B|------------7------------------|
 G|--------7----------------------|
 D|----5--------------------------|
 A|-------------------------------|
 E|-------------------------------|
 e|------- ------- ------- -------|------- ------- ------- -------|
 B|-------------------------------|-------------------------------|
 G|-------------------------------|-------------------------------|
 D|-------------------------------|-------------------------------|
 A|----------------2-------4------|5---4---2----------------------|
 E|0-------2/4--------------------|------------3---4---3---2------|

he can't go to heaven, maybe, I don't want to go, Lord.
 
 e|------- ------- ------- -------|------- ------- ------- -------|
 B|-------------------------------|-------------------------------|
 G|-------------------------------|-------------------------------|
 D|-------------------------------|-------------------------------|
 A|----------------2-------4------|5-P-4---2----------------------|
 E|0-------2/4--------------------|------------3---4---3---2------|

00:37
 
 e|------- ------- ------- -------|------- ------- ------- -------|
 B|-------------------------------|-------------------------------|
 G|0H1---2-----0H1---------2------|0H1---2-----1------------------|
 D|0------------------------------|0-----------0------------------|
 A|--------2---------------2------|--------2----------------------|
 E|0---------------0--------------|0-----------0------------------|

Picture key of E, call me Uncle John.
me in the
 
 e|------- ------- ------- -------|------- ------- ------- -------|
 B|-------------------------------|-------------------------------|
 G|-------------------------------|------------2------------------|
 D|-------------------------------|------2------------------------|
 A|----------------2/4-----2------|-------------------------------|
 E|0-------0----------------------|0------------------------------|
 e|---1212 -1212-- 12-1212 121212-|12---12 ---12-- ------- -------|
 B|-------------------------------|-------------------------------|
 G|----9-9---9-9----9--9-9--9-9-9-|-9----9-----9------------------|
 D|-------------------------------|-------------------------------|
 A|-------------------------------|-------------------------------|
 E|-------------------------------|-------------------------------|
 e|------- ------- ------- ----0--|------- ------- ------- -------|
 B|-------------------------------|-------------------------------|
 G|0H1---2-----0H1---------2------|0H1---2-----1------------------|
 D|0-----------0------------------|------------0------------------|
 A|--------2---------------2------|--------2----------------------|
 E|0---------------0--------------|0-----------0------------------|

Any fool see that we go back a long time.
can easily
 
 e|------- ------- ------- -------|------- ------- ------- -------|
 B|-------------------------------|-------------------------------|
 G|-------------------------------|-------------------------------|
 D|-------------------------------|----------------2/4-----2------|
 A|----------------2/4-----2------|-------------------------------|
 E|0-------0----------------------|0-----0-0----------------------|
 e|---1212 -1212-- 12-12-- 12-12--|---12-- -12---- 121212- 121212-|
 B|-------------------------------|-------------------------------|
 G|----9-9---9-9----9--9----9--9--|----9-----9------9-9-9---9-9-9-|
 D|-------------------------------|-------------------------------|
 A|-------------------------------|-------------------------------|
 E|-------------------------------|-------------------------------|
 e|------- ------- ------- -------|------- ------- ------- -------|
 B|-------------------------------|-------------------------------|
 G|0H1---2-----0H1---------2------|0H1---2-----1------------------|
 D|0-----------0------------------|-------------------------------|
 A|--------2---------------2------|--------2----------------------|
 E|0---------------0--------------|0-----------0------------------|

Feel something to me, there's as the wrong time. He
like fine no such thing
 
 e|------- ------- ------- -------|------- ------- ------- -------|
 B|-------------------------------|-------------------------------|
 G|-------------------------------|-------------------------------|
 D|-------------------------------|----------------2/4-----2------|
 A|----------------2/4-----2------|-------------------------------|
 E|0-------0----------------------|0-----0-0----------------------|
 e|---12-- -12--12 121212- 121212-|---1212 -12--12 12-12-- -------|
 B|-------------------------------|-------------------------------|
 G|----9-----9---9--9-9-9---9-9-9-|----9-9---9---9--9--9-------9--|
 D|-------------------------------|------------------------9H11---|
 A|-------------------------------|-------------------------------|
 E|-------------------------------|-------------------------------|
 e|------- ------- ------- -------|------- ------- ------- -------|
 B|-------------------------------|-------------------------------|
 G|-------------------------------|-------------------------------|
 D|-------------------------------|-------------------------------|
 A|----------------2-------4------|5---4---2----------------------|
 E|0-------2/4--------------------|------------3---4---3---2---0--|

hops up on my knee, singing, get down, song time.
Pops, it's
 
 e|------- ------- ------- -------|------- ------- ------- -------|
 B|-------------------------------|-------------------------------|
 G|-------------------------------|-------------------------------|
 D|-------------------------------|-------------------------------|
 A|----------------2-------4------|5---4---2----------------------|
 E|0-------2/4--------------------|------------3---4---3---2---0--|
 e|------- ------- ------- -------|------- ------- ------- -------|
 B|--------9-------9-9-----9------|9------------------------------|
 G|--------9-------9-9-----9------|9------------------------------|
 D|----9-------9-------9-------9--|-------------------------------|
 A|-------------------------------|-------------------------------|
 E|-------------------------------|-------------------------------|

00:56
[E] [Ab11]  
 
 e|------- ----4-- ------- -------|------- ----2-- ------- -------|
 B|--------5----------------------|--------2----------------------|
 G|----4--------------------------|----3--------------------------|
 D|-------------------------------|-------------------------------|
 A|-------------------------------|-------------------------------|
 E|0------------------------------|4------------------------------|

Every now and then I'm a lonely man,
 
 e|------- ----7-- ------- -------|------- ------- ------- -------|
 B|--------9----------------------|------------7------------------|
 G|----9--------------------------|--------6----------------------|
 D|-------------------------------|----8--------------------------|
 A|7------------------------------|-------------------------------|
 E|-------------------------------|-------------------------------|
 e|------- ------- ------- -------|------- ------- ------- --9----|
 B|------------------------12-----|--------------------9/11----11---|
 G|--------11/13------/13------13-|---------------------------------|
 D|-------------------------------|---------------------------------|
 A|-------------------------------|---------------------------------|
 E|-------------------------------|---------------------------------|

[Dbm7] [F#m7] [B7]  
 
 e|------- ------- ------- -------|------- ------- ------- -------|
 B|------------5------------------|--------2---------------4------|
 G|--------4----------------------|--------2---------------2------|
 D|----6--------------------------|----2-------2-------4----------|
 A|4------------------------------|----------------2--------------|
 E|-------------------------------|2------------------------------|

it's nice to know that got a friend.
I've
 
 e|------- ----7-- ------- -------|------- ------- ------- -------|
 B|--------5----------------------|-------------------------------|
 G|----6--------------------------|--------6---------------4------|
 D|6------------------------------|----7-------7-------4----------|
 A|-------------------------------|7---------------6--------------|
 E|-------------------------------|-------------------------------|
 e|------- ------- ------- -------|------- ------- ------- -------|
 B|9-~------------7-5-7---5-----5/7---------------------------------|
 G|----------------------6--------|----------------8----------------|
 D|-------------------------------|---------------------------------|
 A|-------------------------------|---------------------------------|
 E|-------------------------------|---------------------------------|

[E] [Ab11]  
 
 e|------- ----4-- ------- -------|------- ----2-- ------- -------|
 B|--------5----------------------|--------2----------------------|
 G|----4--------------------------|----3--------------------------|
 D|-------------------------------|-------------------------------|
 A|-------------------------------|-------------------------------|
 E|0------------------------------|4------------------------------|

Puts power right in my hand,
his
 
 e|------- ----7-- ------- -------|------- ------- ------- -------|
 B|--------9----------------------|------------7------------------|
 G|----9--------------------------|--------6----------------------|
 D|-------------------------------|--6/8-----------------------6/8|
 A|7------------------------------|-------------------------------|
 E|-------------------------------|-------------------------------|
 e|------- ------- ------- -------|------- ------- ------- ----9--|
 B|----------------------------12-|--------------------9/11-------|
 G|9------------------11/13-------|11-----------------------------|
 D|-------------------------------|-------------------------------|
 A|-------------------------------|-------------------------------|
 E|-------------------------------|-------------------------------|

[Db] [B7]  
 
 e|------- ------- ------- -------|------- ----5-- ------- -------|
 B|------------6------------------|------------4------------------|
 G|--------6----------------------|--------2----------------------|
 D|----6--------------------------|---4---------------------------|
 A|4------------------------------|2------------------------------|
 E|-------------------------------|-------------------------------|

and all I've got to do is the best
 
 e|------- ----4-- ------- -------|------- ----5-- ------- -------|
 B|--------6----------------------|--------4----------------------|
 G|----6--------------------------|----4--------------------------|
 D|6---------------------------6--|4------------------------------|
 A|-------------------------------|-------------------------------|
 E|-------------------------------|-------------------------------|
 e|9------ ------- ---9--- 9------|7------ ------- ------- -------|
 B|9------------------9H11-9------|7------------------------------|
 G|----------------------------10-|8------------------------------|
 D|-------------------------------|-------------------------------|
 A|-------------------------------|----------------------------5-6|
 E|-------------------------------|-------------------------------|

[A5] [A6] [A7]  
 
 e|------- ------- ------- -------|------- ------- ------0 -------|
 B|-------------------------------|------------------------0------|
 G|-------------------------------|--------------------------2----|
 D|2---2---4---2---5---2---4------|2-------4-------2--------------|
 A|0---0---0---0-------0---0------|0---0---0---0---0--------------|
 E|-------------------------------|--------------------3-------3--|

I can, if I can.
 
 e|------- ------- ----0-- ----0--|------- ------- ------- -------|
 B|--------------------0---2---0--|--------------------5------------|
 G|----------------0---0-------0--|------------4-/-6----------------|
 D|2---2---4---2---2--------------|---------------------------------|
 A|0---0---0---0------------------|---------------------------------|
 E|-------------------------------|---------------------------------|
 e|------- ------- ------- -------|------- ------- ------- -------|
 B|-------------------------------|--------------------14------B--|
 G|-------------------------------|-------------------------------|
 D|-------------------------------|-------------------------------|
 A|-------------------------------|-------------------------------|
 E|-------------------------------|-------------------------------|

01:22
 
 e|------- ------- ----0-- -------|------- ------- ------- -------|
 B|-------------------------------|-------------------------------|
 G|0H1---2-----0H1---------2------|0H1---2---0H1------------------|
 D|0------------------------------|-------------------------------|
 A|--------2---------------2------|--------2----------------------|
 E|0---------------0--------------|0---------------0--------------|
 e|------- ------- ------- -------|------- ------- ------- -------|
 B|-------------------------------|-------------------------------|
 G|-------------------------------|-------------------------------|
 D|-------------------------------|----------------2/4-----2------|
 A|----------------2/4-----2------|-------------------------------|
 E|0-------0----------------------|0-------0----------------------|

P P H
 
 e|------- ------- ------- -------|------- ------- ------- -12--12~
 B|--------15-~-------------------|---------------15141214-12-----|
 G|-------------------------------|----------------------14-------|
 D|-------------------------------|-------------------------------|
 A|-------------------------------|-------------------------------|
 E|-------------------------------|-------------------------------|
 e|------- ------- ------- -------|------- ------- ------- -------|
 B|-------------------------------|3-------2----------------------|
 G|0H1---2-----0H1----------------|2-------2----------------------|
 D|0------------------------------|4-------2----------------------|
 A|-------------------------------|0-------0----------------------|
 E|0-----0-----0---0--------------|----------------4---3---2-0----|
 e|------- ------- ------- -------|------- ------- 7---6-- 5-4----|
 B|-------------------------------|-------------------------------|
 G|-------------------------------|------------5/7---6-----5-4----|
 D|-------------------------------|-------------------------------|
 A|----------------2/4-----2------|2------------------------------|
 E|0-------0----------------------|0------------------------------|
 e|------- ------- ------- -------|------- ------- 4---3-- 2---0-~|
 B|-------------------------------|-------------------------------|
 G|-------------------------------|------------2/4----------------|
 D|-------------------------------|-------------------------------|
 A|-------------------------------|-------------------------------|
 E|-------------------------------|-------------------------------|

01:32
 
 e|------- ------- --0---- ----0--|------- ------- ------- -------|
 B|-------------------------------|-------------------------------|
 G|0H1---2-----0H1---------2------|0H1---2-----0H1----------------|
 D|------------0------------------|------------0------------------|
 A|------2-----------------2------|------2------------------------|
 E|0---------------0--------------|0-----------0------------------|

I got dog named David, I got bird named Dinah, I got a
[a] [a]  
 
 e|------- ------- ------- -------|------- ------- ------- -------|
 B|-------------------------------|-------------------------------|
 G|-------------------------------|-------------------------------|
 D|-------------------------------|----------------2/4-----2------|
 A|----------------2/4-----2------|-------------------------------|
 E|0-------0----------------------|0-------0----------------------|
 e|---1212 --12--- 1212--- 1212---|---1212 --12--- 12P9--- -------|
 B|-------------------------------|-------------------12-----P-P--|
 G|----9-9----9-----9-9-----9-9---|----9-9----9------------12119--|
 D|-------------------------------|----------------------------11-|
 A|-------------------------------|-------------------------------|
 E|-------------------------------|-------------------------------|
 e|------- ------- ------- -------|------- ------- ------- -------|
 B|-------------------------------|-------------------------------|
 G|0H1---2-----0H1----------------|0H1---2-----1------------------|
 D|-------------------------------|-------------------------------|
 A|------2------------------------|------2------------------------|
 E|0-----------0------------------|0-----------0------------------|

birthmark on my thigh in shape of Mainland Got a
the China.
 
 e|------- ------- ------- -------|------- ------- ------- -------|
 B|-------------------------------|-------------------------------|
 G|-------------------------------|-------------------------------|
 D|-------------------------------|----------------2/4-----2------|
 A|----------------2/4-----2------|-------------------------------|
 E|0-------0----------------------|0-------0----------------------|
 e|---1212 --12--- 12121212-------|---1212 -121212 12--12- -------|
 B|-------------------------------|-------------------------------|
 G|----9-9----9-----9-9-9-9----9--|----9-9---9-9-9--9---9------9--|
 D|------------------------9H11---|------------------------9H11---|
 A|-------------------------------|-------------------------------|
 E|-------------------------------|-------------------------------|
 e|------- ------- ------- -------|------- ------- ------- -------|
 B|-------------------------------|-------------------------------|
 G|0H1---2-----1------------------|0H1---2-----0H1----------------|
 D|-------------------------------|-------------------------------|
 A|------2------------------------|------2------------------------|
 E|0-----------0------------------|0-----------0------------------|

somewhat accent cause come from And
southern I Carolina,
 
 e|------- ------- ------- -------|------- ------- ------- -------|
 B|-------------------------------|-------------------------------|
 G|-------------------------------|-------------------------------|
 D|-------------------------------|----------------2/4-----2------|
 A|----------------2/4-----2------|-------------------------------|
 E|0-------0----------------------|0-------0----------------------|
 e|---1212 -12--12 12--12- -------|----12- -12--12 12-1212 -------|
 B|-------------------------------|-------------------------------|
 G|----9-9---9---9--9---9------9--|-----9----9---9--9--9-9-----9--|
 D|------------------------9H11---|------------------------9H11---|
 A|-------------------------------|-------------------------------|
 E|-------------------------------|-------------------------------|
 e|------- ------- ------- -------|------- ------- ------- -------|
 B|-------------------------------|-------------------------------|
 G|-------------------------------|-------------------------------|
 D|-------------------------------|-------------------------------|
 A|----------------2-------4------|5---4---2----------------------|
 E|0-------2/4--------------------|------------3---4---3---2---0--|

if you want to find us she'll walking right behind you.
be
 
 e|------- ------- ------- -------|------- ------- ------- -------|
 B|-------------------------------|-------------------------------|
 G|-------------------------------|-------------------------------|
 D|-------------------------------|-------------------------------|
 A|----------------2-------4------|5---4---2----------------------|
 E|0-------2/4--------------------|------------3---4---3---2---0--|
 e|------- ------- ------- -------|------- ------- ------- -------|
 B|--------9-------9-------9------|9------------------------------|
 G|--------9-------9-------9------|9------------------------------|
 D|----9-------9-------9-------9--|-------------------------------|
 A|-------------------------------|-------------------------------|
 E|-------------------------------|-------------------------------|

01:52
 
 e|------- ----4-- ------- -------|------- ----2-- ------- -------|
 B|--------5----------------------|--------2----------------------|
 G|----4--------------------------|----3--------------------------|
 D|-------------------------------|-------------------------------|
 A|7------------------------------|-------------------------------|
 E|-------------------------------|4------------------------------|

I hear horns, I hear voices,
 
 e|------- ----7-- ------- -------|------- ------- ------- -------|
 B|--------9----------------------|------------7------------------|
 G|----9--------------------------|--------6----------------------|
 D|-------------------------------|----8--------------------------|
 A|7------------------------------|-------------------------------|
 E|-------------------------------|-------------------------------|
 e|------- ------- ------- -------|------- ------- ------- ----9--|
 B|----------------------------12-|-------------------9/11--------|
 G|------------------11/13--------|11-----------------------------|
 D|-------------------------------|-------------------------------|
 A|-------------------------------|-------------------------------|
 E|-------------------------------|-------------------------------|
 e|------- ------- ------- -------|------- ------- ------- -------|
 B|------------5------------------|--------2---------------4------|
 G|--------4----------------------|--------2---------------2------|
 D|----6--------------------------|----2---------------4----------|
 A|4------------------------------|----------------2--------------|
 E|-------------------------------|2------------------------------|

I hear strings.
 
 e|------- ----7-- ------- -------|------- ------- ------- -------|
 B|--------5----------------------|-------------------------------|
 G|----6--------------------------|--------6---------------4------|
 D|6------------------------------|----7-------7-------4----------|
 A|-------------------------------|7---------------6--------------|
 E|-------------------------------|-------------------------------|
 e|------- ------- ------- -------|------- ------- ------- -------|
 B|--------------------P-P--------|-------------------------------|
 G|11--9-------------12119-11--9--|-------------------------------|
 D|-------------------------------|-------------------------------|
 A|-------------------------------|-------------------------------|
 E|-------------------------------|-------------------------------|
 e|------- ----4-- ------- -------|------- ----2-- ------- -------|
 B|------------5------------------|--------2----------------------|
 G|--------4----------------------|----3--------------------------|
 D|----6--------------------------|-------------------------------|
 A|7------------------------------|-------------------------------|
 E|-------------------------------|4------------------------------|

Seems I was born with too many
choices.
 
 e|------- ----7-- ------- -------|------- ------- ------- -------|
 B|--------9----------------------|------------7------------------|
 G|----9--------------------------|--------6----------------------|
 D|-------------------------------|----8--------------------------|
 A|7------------------------------|-------------------------------|
 E|-------------------------------|-------------------------------|
 e|------- ------- ------- -------|------- ------- ------- --9----|
 B|--------------------------12---|-------------------9/11--------|
 G|------------------11/13--------|11-----------------------------|
 D|-------------------------------|-------------------------------|
 A|-------------------------------|-------------------------------|
 E|-------------------------------|-------------------------------|
 e|------- ------- ------- -------|------- ----5-- ------- -------|
 B|------------6------------------|------------4------------------|
 G|--------6----------------------|--------2----------------------|
 D|----6--------------------------|----4--------------------------|
 A|4------------------------------|2------------------------------|
 E|-------------------------------|-------------------------------|

Now what gonna do with all
am I
 
 e|------- ----4-- ------- -------|------- ----5-- ------- -------|
 B|--------6----------------------|--------4----------------------|
 G|----6--------------------------|----4--------------------------|
 D|6-------------------------4/6--|4------------------------------|
 A|-------------------------------|-------------------------------|
 E|-------------------------------|-------------------------------|
 e|9------ ------- ------- -------|--7---- ------- ------- 7------|
 B11P9-------------9-----9--------|-10------------10------10------|
 G|---------------------10--------|--8-------------8---8----------|
 D|-------------------------------|--7-------------7--------------|
 A|-------------------------------|--9-------------9--------------|
 E|-------------------------------|--7-------------7--------------|
 e|------- ------- ------- -------|------- ------- ------0 -------|
 B|-------------------------------|------------------------0------|
 G|-------------------------------|--------------------------2----|
 D|2---2---4---2---5-------4------|2-------4-------2--------------|
 A|0---0---0---0---0---0---0---0--|0---0---0---0---0--------------|
 E|-------------------------------|--------------------2------2---|

these extra things serve me, really. It's
as they to confuse
 
 e|------- ------- ----0-- ----0--|------- ------- ------- -------|
 B|--------------------0---2---0--|--------------------5------------|
 G|----------------0---0-------0--|------------4-/-6----------------|
 D|2---2---4---2---2--------------|---------------------------------|
 A|0---0---0---0------------------|---------------------------------|
 E|-------------------------------|---------------------------------|
 e|------- ------- ------- -------|------- ------- ------- -------|
 B|5---5-------5-------5-------5--|5-----------5---8---14------B--|
 G|6---6-------6-------6-------6--|6-----------6---6--------------|
 D|5---5-------5-------5-------5--|5-----------5---5--------------|
 A|7---7-------7-------7-------7--|7-----------7---7--------------|
 E|5---5-------5-------5-------5--|5-----------5---5--------------|

02:17
 
 e|------- ------- ----0-- ----0--|------- ------- ------- -------|
 B|-------------------------------|-------------------------------|
 G|0H1---2-----0H1---------2------|0H1---2---0H1------------------|
 D|------------0------------------|-------------------------------|
 A|--------2---------------2------|--------2----------------------|
 E|0---------------0--------------|0---------0--------------------|

me and my guitar, essentially
 
 e|------- ------- ------- -------|------- ------- ------- -------|
 B|--------15-~-------------------|-------------------------------|
 G|-------------------------------|-------------------------------|
 D|-------------------------------|-------------------------------|
 A|-------------------------------|-------------------------------|
 E|-------------------------------|-------------------------------|
 e|------- ------- ----0-- -------|------- ------- ------- -------|
 B|-------------------------------|3-------2----------------------|
 G|0H1---2-----0H1----------------|2-------2----------------------|
 D|------------0------------------|4-------2----------------------|
 A|--------2-------------------2--|0-------0----------------------|
 E|0---------------0--------------|----------------4---3---2-0----|

me and my guitar. Oh,
 
 e|------- ------- ------- -------|------- ------- 7---6-- 5-4----|
 B|-------------------------------|-------------------------------|
 G|-------------------------------|------------5/7-----6---5-4----|
 D|-------------------------------|-------------------------------|
 A|-------------------------------|-------------------------------|
 E|0---------------0--------------|0------------------------------|
 e|------- ------- --0---- ----0--|------- ------- ------- -------|
 B|-------------------------------|-------------------------------|
 G|0H1---2-----0H1---------2------|0H1---2-----0H1---------2------|
 D|-------------------------------|-------------------------------|
 A|--------2---------------2------|--------2---------------2------|
 E|0---------------0--------------|0---------------0--------------|

maybe friends fall tea,
a few by for
 
 e|------- ------- ------- -------|------- ------- ------- -------|
 B|-------------------------------|-------------------------------|
 G|-------------------------------|-------------------------------|
 D|-------------------------------|----------------2/4-----2------|
 A|----------------2/4-----2------|-------------------------------|
 E|0-------0----------------------|0-------0----------------------|
 e|---1212 -1212-- 121212- 12--12-|---1212 -12--12 12121212-1212--|
 B|-------------------------------|-------------------------------|
 G|----9-9---9-9----9-9-9---9---9-|----9-9---9---9--9-9-9-9--9-9--|
 D|-------------------------------|-------------------------------|
 A|-------------------------------|-------------------------------|
 E|-------------------------------|-------------------------------|
 e|------- ------- ------- -------|------- ------- ------- -------|
 B|-------------------------------|-------------------------------|
 G|0H1---2-----0H1---------2------|0H1---2-----1------------------|
 D|-------------------------------|-------------------------------|
 A|--------2---------------2------|--------2----------------------|
 E|0--------------0---------------|0-----------0------------------|

a bit of do you
little ?who love??
 
 e|------- ------- ------- -------|------- ------- 4---5-- 6-7----|
 B|-------------------------------|-------------------------------|
 G|-------------------------------|------------2/4-----5---6-7----|
 D|-------------------------------|-------------------------------|
 A|----------------5/7-----5------|-------------------------------|
 E|0-------0----------------------|0-------0----------------------|
 e|---1212 --12--- 121212- 121212-|---12-- 12P9-12P9------ -------|
 B|-------------------------------|------------12---12P9----------|
 G|----9-9----9-----9-9-9---9-9-9-|----9----------------12-11-9---|
 D|-------------------------------|-------------------------------|
 A|-------------------------------|-------------------------------|
 E|-------------------------------|-------------------------------|
 e|------- ------- ------- -------|------- ------- ------- -------|
 B|-------------------------------|-------------------------------|
 G|0H1---2-----0H1---------2------|0H1---2-----0H1----------------|
 D|0------------------------------|0------------------------------|
 A|--------2---------------2------|--------2----------------------|
 E|0---------------0--------------|0---------------0--------------|

But pay attention to man behind the It's
no the curtain,
 
 e|------- ------- ------- -------|------- ------- ------- -------|
 B|-------------------------------|-------------------------------|
 G|-------------------------------|-------------------------------|
 D|-------------------------------|----------------2/4-----2------|
 A|----------------2/4-----2------|-------------------------------|
 E|0-------0----------------------|0-------0----------------------|
 e|---1212 1212121212-1212 12--12-|--1212- -12---- -----12 --P----|
 B|-------------------------------|------------------P-H---1412-P-|
 G|----9-9--9-9-9-9-9--9-9--9---9-|---9-9----9--12-131213-----1311|
 D|-------------------------------|-------------------------------|
 A|-------------------------------|-------------------------------|
 E|-------------------------------|-------------------------------|
 e|------- ------- ------- -------|------- ------- ------- -------|
 B|-------------------------------|-------------------------------|
 G|0H1---2-----1-----------2------|0H1---2-----1------------------|
 D|-------------------------------|0------------------------------|
 A|--------2---------------2------|--------2----------------------|
 E|0---------------0--------------|0-----------0------------------|

me and my guitar.
 
 e|------- ------- ------- -------|------- ------- 7---6-- 5-4----|
 B|-------------------------------|-------------------------------|
 G|-------------------------------|------------5/7---6-----5-4----|
 D|-------------------------------|-------------------------------|
 A|----------------5/7-----5------|-------------------------------|
 E|0-------0----------------------|0-------0----------------------|
 e|---1212 1212--- 12-1212 121212-|---1212 1212-12 12-1212 121212-|
 B|-------------------------------|-------------------------------|
 G|----9-9--9-9-----9--9-9--9-9-9-|----9-9--9-9--9--9--9-9--9-9-9-|
 D|-------------------------------|-------------------------------|
 A|-------------------------------|-------------------------------|
 E|-------------------------------|-------------------------------|
 e|------- ------- ----0-- -------|------- ------- ----0-- -------|
 B|-------------------------------|-------------------------------|
 G|0H1---2-----0H1---------2------|0H1---2-----0H1---------2------|
 D|-------------------------------|0------------------------------|
 A|--------2---------------2------|--------2---------------2------|
 E|0---------------0--------------|0---------------0--------------|
 e|------- ------- ------- -------|------- ------- ------- -------|
 B|-------------------------------|-------------------------------|
 G|-------------------------------|-------------------------------|
 D|-------------------------------|----------------2/4-----2------|
 A|----------------2/4-----2------|-------------------------------|
 E|0-------0----------------------|0-------0----------------------|
 e|---1212 121212- ------- --12---|------- 121212- --1212- 121212-|
 B|------------------P---P--------|-------------------------------|
 G|----9-9--9-9-9121312131213-----|11B12----9-9-9-----9-9---9-9-9-|
 D|-----------------------------14|-------------------------------|
 A|-------------------------------|-------------------------------|
 E|-------------------------------|-------------------------------|

..........................................................
Having fun,
Boogie Oh, woogie
Got to uh-huh,
Me and my guitar Me and my guitar (...Fade...)
Me and my guitar
Ooooooooooohhh
B Bend
R Release
/ Slide up
Slide down
H Hammer-on
P Pull-off
~ Vibrato
+ Harmonic
x Mute note
. Play note like a dot in standard notation
^ Ties two notes together
(. Pause

Important: The song above is NOT stored on the Chordie server. The original song is hosted at www.guitaretab.com. Chordie works as a search engine and provides on-the-fly formatting. Chordie does not index songs against artists'/composers' will. To remove this song please click here.

Text color:
Chord color:
Chord grids: 
Font size:    
Page size: 

A A5 A6 A7 Ab11 B7 D Db Dbm7 E E7 F#m7 Gmaj9
Rate #1 of 1 versions

Login - add to songbook

SHARE PAGE  



You need to log in to post comments