Guitar Tabs, Chords and Lyrics
Server problems seems to be fixed. Chordie has been experiencing problems with songs disappearing. These issues now seems to be fixed, but still verifying the fix. If you find anything strange, please email admin@chordie.com.


Ein Leben lang  Jan Delay

 
 ---------------------------------------------------------------------------

Ein Leben lang ? Jan Delay
 
 ---------------------------------------------------------------------------

Tabbed by: HerrJemine, Bochum, Germany
Email: Jemine.Herr@googlemail.com
Tuning: Standard
Capo: 3rd Fret
All Chords relative to Capo
Intro: Em Am C E
[Em] [Am] [C] [E]  
 
 e|0-----0-----0-----0-----0-----0------0-----------|
 B|0----0-0----1----1-1----1----1-1-----0-----------|
 G|0---0---0---2---2---2---0---0---0----1-----------|
 D|2--2-----2--2--2-----0--2--2-----2---2-----------|
 A|2-----------0-----------3------------2-----------|
 E|X-----------X-----------X------------0-----------|

[Em] [Am] [C] [E]  
 
 e|0-----0--0--0-----0--0--0-----0--0---0-----------|
 B|0----0-0----1----1-1----1----1-1-----0-----------|
 G|0---0---0---2---2---2---0---0---0----1-----------|
 D|2--2--------2--2--------2--2---------2-----------|
 A|2-----------0-----------3------------2-----------|
 E|X-----------X-----------X------------0-----------|

(oh ja)
[Em] So viele Dinge die vers[Am]alzen uns das Leben
[C] Nimm die Bullen, nimm die [E]Schulden, nimm den Regen
[Em] Ja die United Spielver[Am]derber, die geben niemals Ruh'
[C] Doch ich hab ne Waffe [E]gegen sie, und das bist du
[Em] Denn es ist wirklich scheiße[Am]gal was die Probleme sind
[C] Geht es immer nur berga[E]uf und nur mit Gegenwind
[Em] Oder immer nur berg[Am]ab und ohne Bremsen
Mit [C]dir an meiner Seite hab ich kein [E]Schiss vor Konsequenzen
Chorus:
Und ich sag:
[Am]Mit a[D]llem kann ich [E]leben
[Am]Solang ich [D]mit dir leben [E]kann
[Am]Für i[D]mmer und für [E]ewig
[Am]Aber mindeste[D]ns ein Leben la[E]ng
[Em] [Am] [C] [E]  
[Em] Ich sage bist du da[Am] dann komm ich auf alles klar
[C] Schau in deine Augen, und [E]Amargeddon kann mich mal
[Em] Keine Arbeit, kein Erf[Am]olg und auch kein Geld ham
[C] Ja sogar chilln mit deinen[E] wahnsinnigen Eltern
[Em] Und auch all die Ne[Am]urosen und Gebrechen
Sie [C]schmelzen dahin bei deinem[E] strahlenden Lächeln
Und ic[Em]h kann nen Fick auf alles [Am]geben so wie 2Pac
weil dein wunder[C]schönes Wesen, alles [E]Böse wieder gut macht
Refrain (2x)
Outro:
[Em] [Am] [C] [E]  
 
 e|0-----0-----0-----0-----0-----0------0-----------|
 B|0----0-0----1----1-1----1----1-1-----0-----------|
 G|0---0---0---2---2---2---0---0---0----1-----------|
 D|2--2-----2--2--2-----0--2--2-----2---2-----------|
 A|2-----------0-----------3------------2-----------|
 E|X-----------X-----------X------------0-----------|

===========================================================================
This is my first Tab!
I've tried to figure out a way to play this song without barre chords.
Pease comment and rate this tab/chords to give me some feedback!

Important: The song above is NOT stored on the Chordie server. The original song is hosted at www.guitaretab.com. Chordie works as a search engine and provides on-the-fly formatting. Chordie does not index songs against artists'/composers' will. To remove this song please click here.

Text color:
Chord color:
Chord grids: 
Font size:    
Page size: 

Am C D E Em
Rate #1 of 6 versions

Login - add to songbook

SHARE PAGE  



You need to log in to post comments