Guitar Tabs, Chords and Lyrics
Major upgrade!! After one year development the new version of Chordie is now online! Please give feedback.


La flaca  Jarabe de Palo

tabbed and full credits to
Jose Luis Nieto
translated and posted here by
kikin
5h7 hammer on
7p5 pull off
5b7 bend up
7r5 liberar
(77) palm muted
Intro:
[Am] [E]  
 
 e:---------|-----------------------------------|
 B:---------|-----------------------------------|
 G:---------|------------------------------7-6--|
 D:---------|-(7-7)7-7(7-7)7-7-(6-6-6-6)6--6-5--|
 A:--2-2-2--|-(7-7)7-7(7-7)7-7-(7-7-7-7)7--7-6--|
 E:--0-3-0--|--5-5-5-5-5-5-5-5--0-0-0-0-0-------|

[D]  
 
 |--------------------------------|
 |--------------------------------|
 |--5-(5-5-5-5-5)5---5-4----------|
 |--4-(4-4-4-4-4)4---3-2----------|
 |--5--5-5-5-5-5-5-0-?0--0-2-2-2--|
 |-------------------------0-3-0--|

[Am] [E]  
 
 --------------------------------------|-10b12-10b12-|
 --------------------------------------|-------------|
 ------------------------------7b8r7-5-|-------------|
 -(7-7)7-7(7-7)7-7--6-6-6-6-6--7b8r7-5-|-------------|
 -(7-7)7-7(7-7)7-7--7-7-7-7-7----------|-------------|
 --5-5-5-5-5-5-5-5--0-0-0-0-0----------|-------------| 

Verse 1:
E[Am]n la vida cono[E]ci mujer igual a[E] l[D#]a f[D]laca
C Ddim riff 1 Am
Coral negro de La Habana, tremendísima mulata
Riff 1:
 
 |--------------|

|-8b10r8-6-5-5-|
 
 |--------------|
 |--------------|
 |--------------|
 |--------------|

Cien libras de piel y h[E]ueso 40 kil[E]os d[D#]e s[D]alsa
F7 E7 F riff2 F F# G
y en la cara dos soles que sin palabras Hablan,
Riff 3
que sin palabras hablan.
Riff 2:
 
 |---------|

|-9b11~~~-|
 
 |---------|
 |---------|
 |---------|
 |---------|

Riff 3:
Gtr 2
 
 |-------------------------------------------------|
 |--6p5--------------------------------------------|
 |------5-2~~-------------------------5----7----5\2|
 |-------------------------------5-----------------|
 |-------------------------------------------------|
 |-------------------------------------------------|

|
 
 |---------|---------------------------------------|
 |---------|---------------------------------------|
 |---------|------------------------------7b8r7-5--|
 |---------|-(7-7)7-7(7-7)7-7--6-6-6-6-6--7b8r7-5--|
 |--2-2-2--|-(7-7)7-7(7-7)7-7--7-7-7-7-7-----------|
 |--0-3-0--|--5-5-5-5-5-5-5-5--0-0-0-0-0-----------| 

Gtr 1
Verse 2:
L[Am]a flaca duerme de dia [E]dice que así el hambr[E]e e[D#]nga[D]ña
C Ddim Am Riff 4
y cuando cae la noche baja a bailar a la tasca
Riff 4:
 
 |-------------|

|-9b11-9b11~~-|
 
 |-------------|
 |-------------|
 |-------------|
 |-------------|

Bailar y baila[E]r y tomar [E]y t[D#]oma[D]r una cerveza tras otra
F7 E7 F Riff 5 G Am D
pero ella nunca engorda, pero ella nunca engorda.
Riff 5:
 
 |-----9b11~-11r9------8-8----------------22b24~~~-|
 |8-10-------------10------10----------------------|
 |---------------------------10p8------------------|
 |---------------------------------11--------------|
 |-------------------------------------------------|
 |-------------------------------------------------|

Chorus:
P[F]or un beso de la fl[G]aca daria lo que [Am]fuera
por un beso [D]de ella aunque sólo uno fuera.[F]
Por un beso de la f[G]laca daria lo que [Am]fuera
por un beso [D]de ella aunque solo uno f[F]uera[F#]. [G]
Riff 6
Aunque solo uno fuera.
Riff 6:
Gtr 2
 
 |-------------------------------------------------|
 |------------------------------------7b9r7b8~~----|
 |------------------------------------7b9r7b8~~----|
 |-------------------------------------------------|
 |-------------------------------------------------|
 |-------------------------------------------------|

| |
 
 |---------|---------------------------------------|
 |---------|---------------------------------------|
 |---------|------------------------------7b8r7-5--|
 |---------|-(7-7)7-7(7-7)7-7--6-6-6-6-6--7b8r7-5--|
 |--2-2-2--|-(7-7)7-7(7-7)7-7--7-7-7-7-7-----------|
 |--0-3-0--|--5-5-5-5-5-5-5-5--0-0-0-0-0-----------| 

Gtr 1
Verse 3(same as 2):
Moje mis sabanas blancas como dice la canción
recordando las caricias que me brindo el primer dia
Enloquezco de ganas de dormir a su ladito
porque Dios que esta flaca a mi me tiene loquitoRiff7
Riff 7:
 
 |-----------------------------|
 |-8p6-------------------------|
 |-----8?-10p8-----8-----------|
 |-------------10----10--10-8~-|
 |-----------------------------|
 |-----------------------------|

A mi me tiene loquito. Riff 8
Riff 8:
 
 |---7-----8----8/10--8?5~-|
 |-5----5-----5------------|
 |-------------------------|
 |-------------------------|
 |-------------------------|
 |-------------------------|

Chorus (again and then this):
Aunque sólo uno fue[Am]ra.[Ebdim] Aunque [E7(2nd)]sólo uno fuera. [F] [G]
Aunque sólo uno fu[Am]era.[Ebdim]
Aunque s[E7(2nd)]ólo uno fuera.[F] [G] [Am] [Ebdim]
Aunque [E7(2nd)]sólo uno fuera.[F] [G] [Am] [Ebdim]
Aunque [E7(2nd)]sólo uno fuera.[F] [G] [Am] [Ebdim]
Aunque [E7(2nd)]sólo uno fuera.[F] [G] [Am] [Ebdim]
Aunque [E7(2nd)]sólo uno fuera.[F] [G] [Am] [Ebdim]
Aunque [E7(2nd)]sólo uno fuera.[F] [G] [Am] [Ebdim]
Aunque [E7(2nd)]sólo uno fuera.
Ends with: Am Am9 Am Ebdim E7/9- (fading)
xxxxxxxxxxxxxxxxxxxxxxxxxxxxxxxxxxxxxxxxxxxxxxxxxx
[Am]E [577555]x7645x ó x7677x
D# x6534x ó x6566x
D x5423x ó x5455x
D x5777x
C x3555x
Ddim x5646x
[F] [133211]  
[F#] [244322]  
[G]F7 [355433]x3324x
E7 x2213x
E7(2nd) x767xx
[Am9]Ebdim [575557]x6757x
E7/9- x7676x

Important: The song above is NOT stored on the Chordie server. The original song is hosted at www.guitaretab.com. Chordie works as a search engine and provides on-the-fly formatting. Chordie does not index songs against artists'/composers' will. To remove this song please click here.

Text color:
Chord color:
Chord grids: 
Font size:    
Page size: 

Am Am9 D D# E Ebdim F F# G
Rate #6 of 10 versions

Jango Player

Login - add to songbook

SHARE PAGE  




You need to log in to post comments