Guitar Tabs, Chords and Lyrics
Major upgrade!! After one year development the new version of Chordie is now online! Please give feedback.


If It Kills Me   Jason Mraz

 
 e---2---------------3-|
 b---3-----------------|
 G---2------1----------|
 D---------------------|
 A------------------2--|
 E------------------3--|

 


 


 chorus


 


 

 
 e---2-------2-----2-----3 the 222--| thing is laying first finger across strings at 2nd fret
 b---3-------2-----2/3--------------|
 G---2------2-----2-----------------|
 D------------------4---------------|
 A----------4-------------2---------|
 E-------------------------3--------|


Important: The song above is NOT stored on the Chordie server. The original song is hosted at www.guitaretab.com. Chordie works as a search engine and provides on-the-fly formatting. Chordie does not index songs against artists'/composers' will. To remove this song please click here.

This song is displayed as text-only. Transposing and tuning is only available for chordpro-songs.
Rate #4 of 8 versions

Login - add to songbook

SHARE PAGE  



You need to log in to post comments