Guitar Tabs, Chords and Lyrics
Major upgrade!! After one year development the new version of Chordie is now online! Please give feedback.


Wordplay   Jason Mraz

 
 e---0------0-------0------0-----0----0------------5----7----2---|
 B---3------3-------3------3-----1----0-----3------7----7----3---|
 G---0------0-------2------0-----0----0-----2------5----8----2---|
 D---0------2-------0------2-----2----2-----0------7----9----0---|
 A---2------3--------------2-----0----2-----0--------------------|
 E---3---------------------0----------0-----2--------------------|

 


 


 fill-1: fill-2:


 [(Em7)] [(Cadd9)]  

 
 |-----------------| |-0---------------|
 |-----------------| |-3---------------|
 |-----------------| |-0---------------|
 |-----------------| |-2---------------|
 |---------2-------| |-3---2---0-------|
 |-0---3---0-------| |-------------3---|


Important: The song above is NOT stored on the Chordie server. The original song is hosted at www.guitaretab.com. Chordie works as a search engine and provides on-the-fly formatting. Chordie does not index songs against artists'/composers' will. To remove this song please click here.

This song is displayed as text-only. Transposing and tuning is only available for chordpro-songs.
Rate #10 of 12 versions

Jango Player

Login - add to songbook

SHARE PAGE  




You need to log in to post comments