Guitar Tabs, Chords and Lyrics
Major upgrade!! After one year development the new version of Chordie is now online! Please give feedback.


Angelyne  The Jayhawks

Very simple intro, great song. There's nothing to it
Listen to the song for the right timing.
Have fun.
Capo 2nd fret
[G] [D7] 
 
 e|-3-----2-0----------|------------|2----0---------------|
 B|-0---------3---2-0--|-----0-1----|1------3-1----0------|
 G|-0-----------------2|------------|2---------------2--0-|
 D|-0------------------|------------|0--------------------|
 A|-2------------------|------------|x--------------------|
 E|-3------------------|------------|x--------------------|

Here comes the we[Amin7]ather
It's [D]looking like another[G] storm
If all desi[Amin7]re
Would l[D]eave this tired boy a[G]lone
[C] [Bd] [Bd]  
 
 Hopes haunt me like ghosts e|---0---|
 Amin B|---3---|
 They point their fingers G|---0---|
 C Bd D|---0---|
 Grass grows in the cracks A|---2---|
 Amin D E|---0---|

Wind makes me shiver.... mmmm
A[G]ngelyne, forgive me
We [D]threw it all away
You could never s[Amin]tand living with a man
C D G (intro)
Who could only lead you half way to love
I tried to fake it
But you wouldn't play along
I watched you naked
Innocent and holding on
Snowflakes make your bones ache in the winter
Your face will not fade, it will just linger.... mmmm
[G]Angelyne, forgive me
We[D] threw it all away
You could never st[Amin]and living with a man
Who could only[C] lead you [D]half way
[G]Angelyne, forgive me
We[D] threw it all away
[Amin]I could never fit into your [C]plans
Dsus4 D G (intro)
I'm nobody's man
(Measure 1)
[C]Don't you tell me [Bd]how to live my [Amin]life[Bd]
C Bd Amin (Measure 2)
Don't you tell me how to live my life
Measure 1:
C Bd Amin Bd only 1st time
 
 e|--------0-----------0---------0------- |-------0-------|
 B|------1---1--------3--3------1--1----- |-----3---3-----|
 G|----0-------0-----0----0----2-----2--- |---0-------0---|
 D|--2--------------0---------2---------- | -0------------|
 A|-3------------ 2----------0----------- |2--------------|
 E|-------------------------------------- |---------------|

After 2nd time, play this twice.
 
 e|------------------------------------------|
 B|------------------------------------------|
 G|--0----0----0-----0----0----0----0----0---|
 D|--5----5----5-----5----4----4----4----4---|
 A|----5----5-----5----5----5----5----5----5-|
 E|------------------------------------------|
 e|------------------------------------------|
 B|------------------------------------------|
 G|-----0---0----0---0----2----2----2---2----|
 D|-----3---3----3---3----3----3----3---3----|
 A|-------3---3----3---3----3----3----3---3--|
 E|------------------------------------------|

Angelyne, forgive me
We threw it all away
You could never stand living with a man
Who could only lead you half way
Angelyne, forgive me
We threw it all away
I could never fit into your plans
I'm nobody's man
Outro goes just like the intro only slow down after the D7
___
|\/ o\
|/\__-/

Important: The song above is NOT stored on the Chordie server. The original song is hosted at www.guitaretab.com. Chordie works as a search engine and provides on-the-fly formatting. Chordie does not index songs against artists'/composers' will. To remove this song please click here.

Text color:
Chord color:
Chord grids: 
Font size:    
Page size: 

Amin Amin7 Bd C D D7 G
Rate #3 of 4 versions

Jango Player

Login - add to songbook

SHARE PAGE  



You need to log in to post comments