Guitar Tabs, Chords and Lyrics
Server problems seems to be fixed. Chordie has been experiencing problems with songs disappearing. These issues now seems to be fixed, but still verifying the fix. If you find anything strange, please email admin@chordie.com.


Jesus Loves Me  Jennifer Knapp

Hey Guys this is my first tab, bear with me, lol... ive only been playing for about 4 or
months but im positive this is 100% accurate, just kind of stumbled over this... please
me with suggestions and whatnot realmencandance@yahoo.com.. thanks
Intro x1
[D]  
 
 e|-----2---------2---------2---------2p0------------|
 B|----------3---------3---------3-------------------|
 D|-----2---------2---------2---------2p0------------|
 G|----------0---------0---------0-------------------|
 A|--------------------------------------------------|
 E|--------------------------------------------------|

[G] [D] 
 
 e|----3--------------------2----------2p0------------|
 B|---------0--------------------3--------------------|
 D|-------------------0-----2----------2--------------|
 G|--------------0---------------0--------------------|
 A|---------2-----------------------------------------|
 E|----3----------------------------------------------|

tamborine fades in here tapping monotonously on each pick
[D]  
 
 e|-----2---------2---------2---------2p0-------------|
 B|----------3---------3---------3-----------3--------|
 D|-----2---------2---------2---------2p0-------------|
 G|----------0---------0---------0-----------0--------|
 A|---------------------------------------------------|
 E|---------------------------------------------------|

[D]  
 
 e|-----2----------------2----------------------------|
 B|----------3----3--------------3-----3----3---------|
 D|-----2----------------2----------------------------|
 G|----------0----0--------------0-----0----0---------|
 A|---------------------------------------------------|
 E|---------------------------------------------------|

Chorus x1
[D]  
 
 e|-----2---------2---------2---------2p0--------------|
 B|----------3---------3---------3-----------3---------|
 D|-----2---------2---------2---------2p0--------------|
 G|----------0---------0---------0-----------0---------|
 A|----------------------------------------------------|
 E|----------------------------------------------------|

Je sus loves me but-not my wife not-my
[G] [D] 
 
 e|----3--------------------2----------2p0------------|
 B|---------0--------------------3--------------------|
 D|-------------------0-----2----------2--------------|
 G|--------------0---------------0--------------------|
 A|---------2-----------------------------------------|
 E|----3----------------------------------------------|

ni gga friends or-there nigga lives
[D]  
 
 e|-----2---------2---------2---------2p0-------------|
 B|----------3---------3---------3-----------3--------|
 D|-----2---------2---------2---------2p0-------------|
 G|----------0---------0---------0-----------0--------|
 A|---------------------------------------------------|
 E|---------------------------------------------------|

Je sus loves me dat fo shooooooo
[D]  
 
 e|-----------2---2--------------2----2---2-----------|
 B|-----3-----------------3---------------------------|
 D|-----------2---2--------------2----2---2-----------|
 G|-----0-----------------0---------------------------|
 A|---------------------------------------------------|
 E|---------------------------------------------------|

cuz the Bib- -le tells me so
Verse x2
[D]  
 
 e|-----2---------2---------2---------2p0--------------|
 B|----------3---------3---------3-----------3---------|
 D|-----2---------2---------2---------2p0--------------|
 G|----------0---------0---------0-----------0---------|
 A|----------------------------------------------------|
 E|----------------------------------------------------|

Read your Bible good and well
[G] [D] 
 
 e|----3--------------------2----------2p0------------|
 B|---------0--------------------3--------------------|
 D|-------------------0-----2----------2--------------|
 G|--------------0---------------0--------------------|
 A|---------2-----------------------------------------|
 E|----3----------------------------------------------|

Dont forget about that apple spellllll
[D]  
 
 e|-----2---------2---------2---------2p0-------------|
 B|----------3---------3---------3-----------3--------|
 D|-----2---------2---------2---------2p0-------------|
 G|----------0---------0---------0-----------0--------|
 A|---------------------------------------------------|
 E|---------------------------------------------------|

dont fall in that wishin wellllllllll
[D]  
 
 e|-----------2---2--------------2----2---2-----------|
 B|-----3-----------------3---------------------------|
 D|-----------2---2--------------2----2---2-----------|
 G|-----0-----------------0---------------------------|
 A|---------------------------------------------------|
 E|---------------------------------------------------|

wishin for heaven and get tin helllll
(rest of verse same as above)
Wash behind your ears don't smell
Cover them freckles don't ask don't tell
Kiss your papa but not too long
Hold his hands Don't do no wrong
Chorus x1
Jesus loves me
But not my wife
Not my nigger friends
Or their nigger lives
But jesus loves me
That's for sure
'Cause the bible tells me so
Verse x2 same as verse above
Hush don't cry Dry them tears
Time'll wash away all them years
Scare or a bruise Pick and choose
When you're all grown up You'll have the blues
Life'll give you that wedding ring
Fancy cars and diamond things
You best believe in Jesus' way
And never fall asleep forgetting to pray
Chorus x1
Jesus loves me
But not my wife
Not my nigger friends
Or their nigger lives
But jesus loves me
That's for sure
'Cause the bible tells me so
(rattle a bag of change)
Cuzzzzz duuuuu Bible telll meeee sooooooo.....
very very simple ...tab works well with an electric and a tamborine and a bag of change
two female singers haha
-Shane

Important: The song above is NOT stored on the Chordie server. The original song is hosted at www.guitaretab.com. Chordie works as a search engine and provides on-the-fly formatting. Chordie does not index songs against artists'/composers' will. To remove this song please click here.

Text color:
Chord color:
Chord grids: 
Font size:    
Page size: 

D G
Rate #1 of 2 versions

Login - add to songbook

SHARE PAGE  



You need to log in to post comments