Guitar Tabs, Chords and Lyrics
Major upgrade!! After one year development the new version of Chordie is now online! Please give feedback.


Are You Gonna Be My Girl  Jet

Are you gonna be my girl - Jet
Standard Tuning
Tabbed By YoYoJoe
I updated it, im almost 100% sure this is right, the last one only got 2 or 3 stars so
hopefully you people will like this one a bit more.
Little Intro Giddy
 
 |-------------------|
 |-----5-7~7~-5------|
 |-----5-7~7~-5------|
 |-5h7----------7-7\-|
 |-------------------|
 |-------------------|

Main Riff
[A]  
 
 |-5-5-5--55-5555-|
 |-5-5-5--55-5555-|
 |-6-6-6--66-6666-|
 |-7-7-7--77-7777-|
 |-7-7-7--77-7777-|
 |-5-5-5--55-5555-|

Pre-chorus
[C] [A] [D]  
 
 |-3-3-3-55-55-|
 |-5-5-5-55-77-|
 |-5-5-5-66-77-|
 |-5-5-5-77-77-|
 |-3-3-3-77-55-|
 |-------55----|

Chorus
[A] [C] [D] [A]  
 
 |-5-5-5--55-5555-3-3-3--33-3333-5-5-5--55-5555-5-5-5--55-5555-|
 |-5-5-5--55-5555-5-5-5--55-5555-7-7-7--77-7777-5-5-5--55-5555-|
 |-6-6-6--66-6666-5-5-5--55-5555-7-7-7--77-7777-6-6-6--66-6666-|
 |-7-7-7--77-7777-5-5-5--55-5555-7-7-7--77-7777-7-7-7--77-7777-| X2
 |-7-7-7--77-7777-3-3-3--33-3333-5-5-5--55-5555-7-7-7--77-7777-|
 |-5-5-5--55-5555-------------------------------5-5-5--55-5555-|

[C] [A]  
 
 |-3-3-3-55-55-55-5-|
 |-5-5-5-55-55-77-7-|
 |-5-5-5-66-66-77-7-|
 |-5-5-5-77-77-77-7-|
 |-3-3-3-77-77-55-5-|
 |-------55-55------|

Bridge
Guitar 2(Plays this until singing starts again during solo, then play chorus)
 
 |-----------------|
 |-----------------|
 |-----------------|
 |-7-7-7--77--7777-|
 |-7-7-7--77--7777-|
 |-5-5-5--55--5555-|

Solo
Main Riff X2
 
 |--------------10-10--------------------12-12-|
 |-12~12~-10-10-------10-10-12~12~-10-10-------|
 |---------------------------------------------|
 |---------------------------------------------|
 |---------------------------------------------|
 |---------------------------------------------|
 |---------------------------------------------|
 |-10-10-12~12~10-10-8-8-10-10-12~12~-10-10~~~-|
 |---------------------------------------------|
 |---------------------------------------------|
 |---------------------------------------------|
 |---------------------------------------------|

Finish with the last part of the chorus

Important: The song above is NOT stored on the Chordie server. The original song is hosted at www.guitaretab.com. Chordie works as a search engine and provides on-the-fly formatting. Chordie does not index songs against artists'/composers' will. To remove this song please click here.

Text color:
Chord color:
Chord grids: 
Font size:    
Page size: 

A C D
Rate #3 of 11 versions

Login - add to songbook

SHARE PAGE  




You need to log in to post comments