Guitar Tabs, Chords and Lyrics
Major upgrade!! After one year development the new version of Chordie is now online! Please give feedback.


Hymn 43  Jethro Tull

Date: Fri, 22 May 1998 14:53:50 -0400
From: "Christopher J. Poulin"
Subject: j/jethro_tull/hymn_43.crd
Title: Hymn 43
Artist: (Jethro Tull) Anderson/Barre?
Transcribed By: ttpagan@bestweb.net (Chris Poulin)
HYMN 43
[D]Oh [C]father high in [A]heaven [G]
[D]smile [C]down upon your [G]son. Yeah!
[D]Whose [C]busy with his[G] money [Bb]games [A]Oh! his women and his[G] gun.
Oh Jesus save me!
 
 E|-----------------
 B|-----------------
 G|----------------- Play 4x
 D|----------3-5----
 A|-5-5-530---------
 E|-----------------

[D]And the [C]unsung Western[A] hero[G]
[D]killed an [C]Indian or [G]three. Yeah!
[D]And then he [C]made his name in[G] Holly[Bb]wood [A] to set the white man[G] free.
Oh Jesus save me!
 
 E|-----------------
 B|-----------------
 G|----------------- Play 4x
 D|----------3-5----
 A|-5-5-530---------
 E|-----------------

If Je[D]sus saves[C] -- well, He'd bette[G]r save Hims[F]elf[C]
from the gor[D]y glory seeker[C]s who use [G]His name in [F]death.[C]
[A] [G]Oooh! Oooh! Oooh! Oooh! Oh Jesus [D]save me!
Solo: D C A G
[D] [C] [G]  
[D] [C] [G] [Bb] [A] [G]  
[D]If Jesus [C]saves -- well, He'd [G]better save [F]Himself[C]
from the gor[D]y glory seeker[C]s who use [G]His name in [F]death.[C]
[A] [G]Oooh! Oooh! Oooh! Oooh!
Oh Jesus save me!
 
 E|-----------------
 B|-----------------
 G|----------------- Play 2x
 D|----------3-5----
 A|-5-5-530---------
 E|-----------------

[D]I [C]saw him in the [A]city[G]
[D]and on the [C]mountains of the [G]moon --
[D]His c[C]ross was rather[G] bloody --[Bb] [A]Oh! He could hardly roll His[G] stone.
Oh Jesus save me!
 
 E|-----------------
 B|-----------------
 G|----------------- Play 4x and end.
 D|----------3-5----
 A|-5-5-530---------
 E|-----------------


Important: The song above is NOT stored on the Chordie server. The original song is hosted at www.guitaretab.com. Chordie works as a search engine and provides on-the-fly formatting. Chordie does not index songs against artists'/composers' will. To remove this song please click here.

Text color:
Chord color:
Chord grids: 
Font size:    
Page size: 

A Bb C D F G
Rate #1 of 4 versions

Jango Player

Login - add to songbook

SHARE PAGE  



You need to log in to post comments