Guitar Tabs, Chords and Lyrics
Major upgrade!! After one year development the new version of Chordie is now online! Please give feedback.


My God  Jethro Tull

Jethro tull - My God
S-sweep picking
 
 e|------------------------------------|
 B|------------------------------------|
 G|------------------------------------|
 D|-----7------7----7---7---7--5h7-----|
 A|---0----------0---0---0-------------|
 E|------------------------------------|
 e|------------------------------------|
 B|----------------------5-------------|
 G|----------5-----9---5-----5/4-------|
 D|--------7---9-7---7-----7-----5-----|
 A|------------------------------------|
 E|------------------------------------|
 e|------------------------------------|
 B|------------------------------------|
 G|------------------------------------|
 D|---5-5/7-7---7---7---7---7-5h7------|
 A|-----4/6-------0---0---0------------|
 E|------------------------------------|
 e|------------------------------------|
 B|------------------------------------|
 G|---------------------2--2--2/4--0---|
 D|---------------0-2-3---3---3/5------|
 A|-0---0---0-2-3----------------------|
 E|------------------------------------|

S S S
 
 e|------------------------------|
 B|----------5-4-----------------| People, what have you done
 G|----------5-4-----------------| Locked Him in His golden cage
 D|---7-7----7-7--7-3---2--------| Made Him bend to your religion
 A|---0---0--0-0-0----0----------| Him resurrected from the grave...
 E|------------------------------|

S S S
 
 e|------------------------------|
 B|----------5-4-----------------|
 G|----------5-4-----------------|
 D|---7-7----7-7--7-3------------|
 A|---0---0--0-0-0----0----------|
 E|------------------------------|

H[D]e is the God of n[G]othing,
I[C]f that's all tha[G]t you can s[D]ee
S S S
 
 e|------------------------------|
 B|----------5-4-----------------|
 G|----------5-4-----------------|
 D|---7-7----7-7--7-3---2--------|
 A|---0---0--0-0-0----0----------|
 E|------------------------------| 

S S S
 
 e|------------------------------|
 B|----------5-4-----------------|
 G|----------5-4-----------------|
 D|---7-7----7-7--7-3------------|
 A|---0---0--0-0-0----0----------|
 E|------------------------------| 

Y[D]ou are the G[G]od of everything,
H[C]es inside[G] you and[D] me.
S S S
 
 e|------------------------------| So lean upon Him gently
 B|----------5-4-----------------| And don't call on him to save
 G|----------5-4-----------------|
 D|---7-7----7-7--7-3---2--------|
 A|---0---0--0-0-0----0----------|
 E|------------------------------|


Important: The song above is NOT stored on the Chordie server. The original song is hosted at www.guitaretab.com. Chordie works as a search engine and provides on-the-fly formatting. Chordie does not index songs against artists'/composers' will. To remove this song please click here.

Text color:
Chord color:
Chord grids: 
Font size:    
Page size: 

C D G
Rate #4 of 4 versions

Jango Player

Login - add to songbook

SHARE PAGE  



You need to log in to post comments