Guitar Tabs, Chords and Lyrics
Server problems seems to be fixed. Chordie has been experiencing problems with songs disappearing. These issues now seems to be fixed, but still verifying the fix. If you find anything strange, please email admin@chordie.com.


Somewhere Over the Rainbow  Jimi Hendrix

These are the basic chord hendrix plays and one of the riffs he plays them in. the solos
on the E scale but I cant figure them out.
 
 e[-0--------3------------------------0-----------0---------------------]
 B[-0--------3------------------------2-----------2---------------------]
 G[-1--------0------------------------2-----------2---------------------]
 D[-2--------0------------------------2-----------2--------------0------]
 A[-2--------2--------2---2---2---2---0-----------0---------0h2---------]
 E[-0--------3--------3---0---3---4---x-----------x-----------------3-0-]

I see fingers hands and shades of faces.
 
 e[--------0-------3------------------0----------0-----------------------]
 B[--------0-------3------------------2----------2-----------------------]
 G[--------2-------0------------------2----------2-----------------------]
 D[---2----2-------0------------------2----------2----------------2--0---]
 A[-2--2---1-------2-----2--2--2--2---0----------0------------0h2--------]
 E[------0-0-------3-----3--0--3--4---x----------x---------------------3-]

Reachin up, but not quite touchin the promised land
[E]I see [G]fingers,[A] hands, and shades of faces,
[E]Reachin u[G]p, but not quite [A]touchin the promised land,
[E]I hear [G]pleas and prayers, [A]and desperate whispers sayin,
[E]Oh lord, please give us a helping hand
(all harmonics on twelfth, let ring)
Yeah yeah yeah
[E]Way down in the [G]background, I can see the [A]frustrated souls of cities burnin,
[E]And on across the [G]water, I can see [A]weapons barkin out to stand down,
[E]And up in the clouds, [G]I can imagine UFO?s chuckling to themselves, [A]laughin they sayin,
[E]?Those people so uptight, they sure know how to make a mess?
Yeah
solo
Well, [E]back at the saloo[G]n my tear mix in [A]mildew with my drink,
[E]I can?t really [G]tell my feet from the [A]sawdust on the floor,
[E]Far as I [G]know, they may even try to [A]wrap me up in cellophane and sell me,
[E]Brothers help me,[G] and don?t worry ?bout [A]lookin at the score.
Yeah yeah yeah.

Important: The song above is NOT stored on the Chordie server. The original song is hosted at www.guitaretab.com. Chordie works as a search engine and provides on-the-fly formatting. Chordie does not index songs against artists'/composers' will. To remove this song please click here.

Text color:
Chord color:
Chord grids: 
Font size:    
Page size: 

A E G
Rate #1 of 2 versions

Login - add to songbook

SHARE PAGE  



You need to log in to post comments