Guitar Tabs, Chords and Lyrics
Login is temporarily disabled for some users. Do not panic. Will be back in an hour or two. DO NOT REREGISTER!!


Don't Cry Sister  J.J. Cale

Intro
 
 |--8-10-11-10-8?10(10)------8---------------------------------------------------|
 |-----------------------11----11-8-11?8-----------------------------------------|
 |-----------------------------------------10--8-(10)-12--10-(8)-10-8------------|
 |---------------------------------------------------------------------8h10------|
 |-------------------------------------------------------------------------------|
 |-------------------------------------------------------------------------------|
 |--8------------------------------8-10-11?11h13--11?8-10-8----8-----------------|
 |----8-11--------------------------------------------------11-------11-8-----8-8|
 |---------10------8-10----------------------------------------------------10----|
 |------------10---------8--10---------------------------------------------------|
 |-------------------------------------------------------------------------------|
 |-------------------------------------------------------------------------------|
 |-------------------------------------------------------------------------------|
 |-8?10-11--10-8-----------------------------------------------------------------|
 |----------------10-8---10-8----------------------------------------------------|
 |-------------------------------------------------------------------------------|
 |-------------------------------------------------------------------------------|
 |-------------------------------------------------------------------------------|

SOLO:
 
 |-------------------------------------------------------------------------------|
 |-------4---3----------------------4-3(3)---------------------------------------|
 |-5?3h5-------3?5p3-5---3---5--3-5-----------3-5-3-(5)?3h5---5-3h5h8--5--7-3h5p0|
 |---------------------5-3------------------5-----------3h5----------------------|
 |-------------------------------------------------------------------------------|
 |-------------------------------------------------------------------------------|
 |------------------------------------10h11----10--8-----------------------------|
 |-----------------4-3(3)-------------------------------8------------------------|
 |--------3-5?3-5----------5---3-5-------12----10--8--8-------10-8--3--5-3--5----|
 |-3-5-----------------------5----------------------------10---------------------|
 |---------------------------------------------------------------10-5--6---------|
 |--------------------------------------------------------------------------6----|
 |-------------------------------------------------------------------------------|
 |-6-4----6?4p3--6?6/8p6?4-4?6-8-------------------------------------------------|
 |------5------------------------------------------------------------------------|
 |-------------------------------------------------------------------------------|
 |-------------------------------------------------------------------------------|
 |-------------------------------------------------------------------------------|

Intro: Cm Bb Cm Bb Cm Cm Bb Cm Bb Cm
[Cm]Dont cry sister cry, itll be alr[Bb]ight in the morning[Cm]
D[(Cm)]ont cry sister cry, everyt[Bb]hingll be just fine[Cm]
[(Cm)]Dont cry sister cry, itll be alr[Bb]ight, I tell you n[Cm]o lie
[(Cm)]Dont cry sister cry, dont do it, don[Bb]t do it[Cm]
[Cm]When old man trouble knocks[Bb] on your door[Ab] [Bb]
[Cm]Dont give him no key, he ju[Bb]st wants more[Ab] [G]
[Cm]Hell turn your life [Bb]to mise[Ab]ry[Cm]
[Cm]Kick you down, just like[G] me
[Cm]Dont cry sister cry, itll be alri[Bb]ght, itll be alrigh[Cm]t
[Cm]Dont cry sister cry, everyth[Bb]ingll be just fine[Cm]
[Cm]Woke downhearte[Bb]d and you feel so bad[Ab] [Bb]
Somebod[Cm]y wants something o[Bb]f nothing you had[Ab] [G]
[Cm]Love dont come [Bb]too easy, yo[Ab]u see[Bb]
[Cm]A little bit of you and a little bi[G]t of me
[Cm]Dont cry sister cry, itll be alr[Bb]ight in the morning[Cm]
D[(Cm)]ont cry sister cry, everyt[Bb]hingll be just fine[Cm]
[Bb]Everythingll be just fine[Cm]
[Bb]Everythingll be just fine[Cm]
Dont cry sister cry, dont do it, dont do it
Dont cry sister cry, dont do it, dont do it

Important: The song above is NOT stored on the Chordie server. The original song is hosted at www.guitaretab.com. Chordie works as a search engine and provides on-the-fly formatting. Chordie does not index songs against artists'/composers' will. To remove this song please click here.

Text color:
Chord color:
Chord grids: 
Font size:    
Page size: 

Ab Bb Cm G
Rate #1 of 2 versions

Login - add to songbook

SHARE PAGE  




You need to log in to post comments