Guitar Tabs, Chords and Lyrics
Login is temporarily disabled for some users. Do not panic. Will be back in an hour or two. DO NOT REREGISTER!!


Guess I Lose  J.J. Cale

The first song on the REWIND album (2007)
Gm C Bb Bb Am Gm (2x)
[Gm]Ain't no star in my heaven
Ain't no [C]sun in my sky
Guess I [Gm]lose[D7]
I don't know [Gm]why
Everyday is dark and dreary
Everyday is feeling weary
Guess I lose
I guess I lose
[A#]Ain't no reason to be [Gm]blue
[A#]Ain't no reason [D7] I got you
Funny thing, I can't get started
Everyday, I feel downhearted
Guess I lose
I guess I lose
Piano solo:
[Gm] [C] [Gm] [D7] [Gm]  
[Gm] [C] [Bb] [Bb] [Am] [Gm]  
[Gm] [D7] [Gm]  
Ain't no reason to be blue
Ain't no reason I got you
Funny thing, I can't get started
Everyday, I feel downhearted
Guess I lose
I guess I lose
Gm C Bb Bb Am Gm Gm D7 Gm (2x)
Lick 1 (00:17)
 
 |-------------------------|
 |-6---6-8-----------------|
 |---7---------------------|
 |-------------------------|
 |-------------------------|
 |-------------------------|

Lick 2 (01:48)
 
 |------------------------------------------3---3-6-3?6/8--6-------|
 |-----------------------------3---3-6-3--6---6--------------------|
 |----------------3---3h5p3--5---5---------------------------------|
 |---3---3---3--5---5----------------------------------------------|
 |-5---5---5-------------------------------------------------------|
 |-----------------------------------------------------------------|

Lick 3 (02:41)
 
 |-3---6p3-----------------------------------|
 |-3---3---6-3--------(3)--------------------|
 |-------------5-3--3--5p3-------------------|
 |-----------------5------5-3----------------|
 |----------------------------5-3/1-3p1------|
 |----------------------------------------5--|


Important: The song above is NOT stored on the Chordie server. The original song is hosted at www.guitaretab.com. Chordie works as a search engine and provides on-the-fly formatting. Chordie does not index songs against artists'/composers' will. To remove this song please click here.

Text color:
Chord color:
Chord grids: 
Font size:    
Page size: 

A# Am Bb C D7 Gm
Rate #0 of 2 versions

Jango Player

Login - add to songbook

SHARE PAGE  




You need to log in to post comments