Guitar Tabs, Chords and Lyrics
Server problems seems to be fixed. Chordie has been experiencing problems with songs disappearing. These issues now seems to be fixed, but still verifying the fix. If you find anything strange, please email admin@chordie.com.


You Keep Me Hangin' On  J.J. Cale

Intro: C G Am G F G C
[C]Every time I [G]stop awhile and[Am] think about your[G] sweet smile
[F]I can't do nothing[G] else all[C] day
The way that you wink your eye every time you walk by
Baby what can I say
[F]You keep me [G]hanging on[C]
[F]I can't get not[G]hing else on[C]
When the evening rolls around
And there ain't nobody around
Baby, I think of you
SOLO F G C (2x)
 
 |-------------------------------------------------------------------------------|
 |-------13-13------13----15b17(15)----------------------------------------------|
 |---14---------14---------------------------------------------------------------|
 |-------------------------------------------------------------------------------|
 |-------------------------------------------------------------------------------|
 |-------------------------------------------------------------------------------|
 |----------------------15-15------15h17/15-15-----------------------------------|
 |---13h15p13----15/17---------17------------------------------------------------|
 |-------------------------------------------------------------------------------|
 |-------------------------------------------------------------------------------|
 |-------------------------------------------------------------------------------|
 |-------------------------------------------------------------------------------|
 |---15p12-----------------------------------------------------------------------|
 |----------15--13----15b17------13----------------------------------------------|
 |---------------------------14--------------------------------------------------|
 |-------------------------------------------------------------------------------|
 |-------------------------------------------------------------------------------|
 |-------------------------------------------------------------------------------|
 |-------------------------------------------------------------------------------|
 |---15b17(15)--------13?-15b17--------------------------------------------------|
 |----------------14-------------12-12------------------------------------------|
 |-------------------------------------------------------------------------------|
 |-------------------------------------------------------------------------------|
 |-------------------------------------------------------------------------------|

Of all the stars at night
None can match the brilliant light
That I see in your eyes
The humble warmth, the glow
Baby child I know, I still think of you
[C]If I could hold you [G]Just one time [Am]Stop that moment [G]in my mind
[F] [G] [C]  
Solo 2 C G Am G F G C (2x)
 
 |----------12?-12h13----13/15--15----15/17-----15--12---------------------------|
 |---13h15----------------------------------------------13-13--------------------|
 |-------------------------------------------------------------------------------|
 |-------------------------------------------------------------------------------|
 |-------------------------------------------------------------------------------|
 |-------------------------------------------------------------------------------|
 |-------------------------------------------------------------------------------|
 |-------13----------------------------------------------------------------------|
 |---14------14--12--------------------------------------------------------------|
 |-------------------(16)--14-/12------------------------------------------------|
 |-------------------------------------------------------------------------------|
 |-------------------------------------------------------------------------------|
 |-------------------------------------------------------------------------------|
 |-------------------------------15b17--13-13------------------------------------|
 |------------12h14--12------14--------------------------------------------------|
 |---12/14-----------------------------------------------------------------------|
 |-------------------------------------------------------------------------------|
 |-------------------------------------------------------------------------------|
 |-------------------12----------------------------------------------------------|
 |---------13----15------15----13-13---------------------------------------------|
 |----/14------------------------------------------------------------------------|
 |-------------------------------------------------------------------------------|
 |-------------------------------------------------------------------------------|
 |-------------------------------------------------------------------------------|


Important: The song above is NOT stored on the Chordie server. The original song is hosted at www.guitaretab.com. Chordie works as a search engine and provides on-the-fly formatting. Chordie does not index songs against artists'/composers' will. To remove this song please click here.

Text color:
Chord color:
Chord grids: 
Font size:    
Page size: 

Am C F G
Rate #1 of 2 versions

Login - add to songbook

SHARE PAGE  




You need to log in to post comments