Guitar Tabs, Chords and Lyrics
Login is temporarily disabled for some users. Do not panic. Will be back in an hour or two. DO NOT REREGISTER!!


Cajun Moon  J.J. Cale

Cajuun Moon From "Okie" album.
Recorded in Ebminor
Arranged in Eminor
****** TULSA SOUND ******
Intro
[Em7] [A] [Em7] [A] [Em7] [B7] [A] [Em7]  
 
 |-----------------5------------------------------5------------------------------|
 |--15b17--15-12---5----15-12-15-12?15b17?15-12---5----15-12-15-12-15b17-15-12---|
 |-----------------6------------------------------6------------------------------|
 |-----------------7------------------------------7------------------------------|
 |-------------------------------------------------------------------------------|
 |-------------------------------------------------------------------------------|
 |---7---------------------------------------------------------------------------|
 |---7---------------------------------------------------------------------------|
 |---8---14-12-14-12-14b16--14-12-14-12-14b16--14-12-14-12-----------------------|
 |---9------------------------------------------------------14?12h14p12h14p12h14-|
 |-------------------------------------------------------------------------------|
 |-------------------------------------------------------------------------------|

[Em7]Cajun moon, where does your [A]power lie
As you [Em7]move across the southern [A]sky
You took my [Em7]babe way too [B7]soon
What have you [A]done, cajun [Em7]moon
Someday babe, when you want your man
And you find him gone, just like the wind
Dont trouble your mind whatever you do
cause cajun moon took him from you
SOLO:
 
 |-------------------------------------------------------------------------------|
 |-------------------------------------------------------------------------------|
 |-------14-12-14--14-12-----------12-12-------------12---------12--------12-----|
 |---14--14-12-14--14-12----12-14---------14-12--12------12-14------12-14---14-12|
 |---14--------------------------------------------------------------------------|
 |-------------------------------------------------------------------------------|
 |-------------------------------------------------------------------------------|
 |-----------------------12-15---14---12---------------------15b17b15?15b17-12---|
 |-------------------12-------------------14---12p11?9p11----------------------14|
 |--11--------12-14---------------------------------------11---------------------|
 |-----12-12---------------------------------------------------------------------|
 |-------------------------------------------------------------------------------|
 |--------------------------------------------------------12---------------------|
 |--12-------------------------------------------------12----15-12---------------|
 |------14b16---12----------14-12----14p12----12?14b16-------------14-12?14p12---|
 |14-----------------14-12---------14-------14-----------------------------------|
 |-------------------------------------------------------------------------------|
 |-------------------------------------------------------------------------------|
 |-------------------------------------------------------------------------------|
 |-------------------------------------------------------------------------------|
 |-14-12?12~~~-------------------------------------------------------------------|
 |-------------------------------------------------------------------------------|
 |-------------------------------------------------------------------------------|
 |-------------------------------------------------------------------------------|

When daylight fades, the night comes on
You can hear the silence of this song
Dont trouble your mind whatever you do
cause he got me like he got you
BLUES FOR PEACE :)

Important: The song above is NOT stored on the Chordie server. The original song is hosted at www.guitaretab.com. Chordie works as a search engine and provides on-the-fly formatting. Chordie does not index songs against artists'/composers' will. To remove this song please click here.

Text color:
Chord color:
Chord grids: 
Font size:    
Page size: 

A B7 Em7
Rate #1 of 3 versions

Jango Player

Login - add to songbook

SHARE PAGE  




You need to log in to post comments