Guitar Tabs, Chords and Lyrics
Login is temporarily disabled for some users. Do not panic. Will be back in an hour or two. DO NOT REREGISTER!!


Carry On  J.J. Cale

A classic J.J. song from Shades album(1981)
tempo: 108
intro 0.00 - 0.17
[Bm] [A] [F#m] [Bm]  
 
 |-----------------------------------------------------------------------------|
 |-----------------------------------------------------------------------------|
 |---4---2---2--------2(2)---2-4(4)---4---------2-2-4p2-----------------4------|
 |-----4---4---4--2-4------4---------------2h4---------------2-4-2-4(4)---4----|
 |-2--------------------------------2------------------------------------------|
 |-----------------------------------------------------------------------------|

[Bm] [A] [Bm] [F#m] [Bm]  
 
 |----------------------------------------------------------------------------|
 |----------2h3p2-------5---2-3-2---------2-3p2---2---------------------------|
 |---4---2---------4-2-----------4---2-4-------4---2----2------2-4-2h4-4------|
 |-----4---------------------------------------------4-----2h4----------------|
 |-2--------------------------------------------------------------------------|
 |----------------------------------------------------------------------------|

[Bm]If life`s little downs they [A]keep coming aroun[Bm]d
Carry on[F#m], carry on[Bm]
[Bm]With darkness all about, you [A]want to scream and [Bm]shout
Carry on[F#m], carry on[Bm]
[Em]Don`t cry [Bm]baby, [Em]look at where you`ve [Bm]been
[D]Everybody knows[A] [G]you just need a frien[F#]d
guitar solo 1:31 - 1:57
[Bm] [A] [Bm] [F#m] [Bm]  
 
 |----------------------------------------------------------------|
 |------------------------------------2-3-2--5--2-3(2)------------|
 |----4---2-4p2-------4-2----2-4(4)---------------------2-4(4)----|
 |------4-------2-(2)-----2---------------------------------------|
 |-2--------------------------------------------------------------|
 |----------------------------------------------------------------|

[Bm] [A] [Bm] [F#m]  
 
 |-----------------------------2----------------------------------|
 |------------2--5-2-------------2-2-3p2-----2--------------------|
 |----4---2-4--------4-2--2-4------------4-----2-4p2----2-----2---|
 |------4--------------------------------------------4----2-4-----|
 |-2--------------------------------------------------------------|
 |----------------------------------------------------------------|

[Bm] [Em] [Bm] [Em] [Bm]  
 
 |----2-----------------------------------------------------------|
 |---(2)--5--3-2-3---------8-----7-7----8--8---8--7-7-------------|
 |-4-(2)------------4/9-------9------7--9----9--------7-----------|
 |----------------------------------------------------------------|
 |----------------------------------------------------------------|
 |----------------------------------------------------------------|

[D] [A] [G] [F#]  
 
 |----------------------------------------------------------------|
 |-7-7----5----3--3-3-2-5~~~~-------------------------------------|
 |-----7----6---4--4----------------------------------------------|
 |----------------------------------------------------------------|
 |----------------------------------------------------------------|
 |----------------------------------------------------------------|


Important: The song above is NOT stored on the Chordie server. The original song is hosted at www.guitaretab.com. Chordie works as a search engine and provides on-the-fly formatting. Chordie does not index songs against artists'/composers' will. To remove this song please click here.

Text color:
Chord color:
Chord grids: 
Font size:    
Page size: 

A Bm D Em F# F#m G
Rate #0 of 5 versions

Jango Player

Login - add to songbook

SHARE PAGE  



You need to log in to post comments