Guitar Tabs, Chords and Lyrics
Login is temporarily disabled for some users. Do not panic. Will be back in an hour or two. DO NOT REREGISTER!!


Money Talks  J.J. Cale

Money Talks from #8 album (1983)
Intro:
[Am] [E7#9] [Am] [E7#9] [Am] [E7#9] [Am] [E7#9]  
 
 |----------------------------------------------------------------|
 |----------------------------------------------------------------|
 |-2-0-(0)-(0)---------2-0--7h9~~--1h2---------2-0-(0-0)----------|
 |--------------0h1h2------------------2p1h2--------------0h1h2---|
 |----------------------------------------------------------------|
 |----------------------------------------------------------------|

[Am] [E7#9] [Am] [E7#9] [Am] [E7#9] [Am] [E7#9]  
 
 |---------------------------------------12-----------------------|
 |---------------------------------13-15----15-13-----------------|
 |-7-5--7-8h9-(9)--7-5----------------------------14--2-0---------|
 |---------------------7-7-5h(5)-5------------------------0h1h2---|
 |----------------------------------------------------------------|
 |----------------------------------------------------------------|

[Am] [E7#9] [Am] [E7#9] [Am] [E7#9]  
 
 |-----5----------------------------------------------------------|
 |-3h5-5--5-----------5-----------------5-------------------------|
 |----------7-7-7-5--8--8-7-5----5-7--8---8-7-5-------------------|
 |----------------------------7-----------------------------------|
 |------------------------------------------------5h7-7-5-3-0-----|
 |----------------------------------------------------------------|

[Am] [E7#9] [Am] [E7#9] [Am] [E7#9] [Am] [E7#9]  
 
 |----------------------------------------------------------------|
 |---3h5-5p3------5-----5-----------------------------------------|
 |-----------5h6----8-7---8--7-5h6---------2-0-(0-0)--------------|
 |---------------------------------7-----------------0h1h2--------|
 |----------------------------------------------------------------|
 |----------------------------------------------------------------|

[Am]Money talks,[E7#9] [Am] [E7#9] i[Am]t'll tell you a [E7#9]story[Am] [E7#9]
[Am]Money talk[E7#9]s, [Am] [E7#9] says strange th[Am]ings [E7#9] [Am] [E7#9]
[Am]Money[E7#9] talks [Am] [E7#9] v[Am]ery lou[E7#9]dly[Am] [E7#9]
[C]You'd be surpr[D]ised the [F]friends you can [G]buy with small ch[Am]ange[E7#9] [Am] [E7#9]
Chords (over the solo)
Am E7#9 (12x) C5 D5 F G (1x) Am E7#9 (2x)
They say it's the root of all evil
They say gold is the king
Money talks, you'd better believe it
All that gold don't mean a thing
Rich people, hear those pockets jingle
Spare change, hear the down-and-outers cry
Money talks, tip-toe up behind you
Steal what they can, off the cuff or on the sly
Money talks
Money talks
Money talks
Money talks

Important: The song above is NOT stored on the Chordie server. The original song is hosted at www.guitaretab.com. Chordie works as a search engine and provides on-the-fly formatting. Chordie does not index songs against artists'/composers' will. To remove this song please click here.

Text color:
Chord color:
Chord grids: 
Font size:    
Page size: 

Am C D E7#9 F G
Rate #0 of 3 versions

Jango Player

Login - add to songbook

SHARE PAGE  



You need to log in to post comments