Guitar Tabs, Chords and Lyrics
Major upgrade!! After one year development the new version of Chordie is now online! Please give feedback.


One of Us  Joan Osborne

Here's my version of One of us. It's chords & Tabs.
Hope you all like it!
(I didn't write the tab from solo, maybe I put it online later)
Greetz, Miloee
Standard Tuning, no capo.
Joan Osborne ? One of us
Intro:
F#m ? D ? A ? E (8X)
Verse:
If [F#m]God had a [D]name
[A] what would it [E]be?
And would you [F#m]call it to his fa[D]ce?
[A] If you were [E]faced with Him in [F#m]all His gl[D]ory,
[A] [E] [F#m] [D] 
Wh[E]at would you ask if you had just one question?
Chorus:
And y[D]eah, [Dsus2]yeah,
[E]God[Esus] is gr[E]eat
Ye[D]ah, y[Dsus2]eah,
[E]God [E6]is go[E]od
[D]yeah, [Dsus2]yeah, ye[E]ah-[Esus]yeah-y[E]eah
What if [F#m]God was o[D]ne of us?[A] [E]
Just a s[F#m]lob like o[D]ne of us[A] [E]
Just a s[F#m]tranger [D]on the b[A]us
Tryin' to [E]make his way h[F#m]ome?[D] [A] [E]
Verse:
If [F#m]God had a [D]face
[A] what would it [E]look like?
And would [F#m]you want to s[D]ee,
[A] if seeing mean[E]t That you would [F#m]have to be[D]lieve
[A] in things like[E] heaven And in Je[F#m]sus and th[D]e saints,
and [A]all the pro[E]phets?
Chorus:
And y[D]eah, [Dsus2]yeah,
[E]God[Esus] is gr[E]eat
Ye[D]ah, y[Dsus2]eah,
[E]God [E6]is go[E]od
[D]yeah, [Dsus2]yeah, ye[E]ah-[Esus]yeah-y[E]eah
What if [F#m]God was o[D]ne of us?[A] [E]
Just a s[F#m]lob like o[D]ne of us[A] [E]
Just a s[F#m]tranger [D]on the b[A]us
Tryin' to [E]make his way h[F#m]ome?[D] [A] [E]
Tryin' to [E]make his way h[F#m]ome?[D] [A] [E]
[A] Back up to [E]heaven all a[F#m]lone[D]
[A] Nobody call[E]ing on the p[F#m]hone[D]
[A] 'Cept for the [E]Pope maybe in [A]Rome[E]
Solo:
( A ? E ? A ? E )
( F#m ? D ? A ? Z (4X))
Chorus:
And y[D]eah, [Dsus2]yeah,
[E]God[Esus] is gr[E]eat
Ye[D]ah, y[Dsus2]eah,
[E]God [E6]is go[E]od
[D]yeah, [Dsus2]yeah, ye[E]ah-[Esus]yeah-y[E]eah
What if [F#m]God was o[D]ne of us?[A] [E]
Just a s[F#m]lob like o[D]ne of us[A] [E]
Just a s[F#m]tranger [D]on the b[A]us
Tryin' to [E]make his way h[F#m]ome?[D] [A] [E]
Tryin' to [E]make his way h[F#m]ome?[D] [A] [E]
Like a [E]holy rolling s[F#m]tone[D] [A] [E]
Back up to [E]heaven all a[F#m]lone[D] [A] [E]
Intro:
8 x
 
 |--2-4-5----------|
 |--------2-2-3-5--|
 |-----------------|
 |-----------------|
 |-----------------|
 |-----------------|

Verse = chords
Chorus = chords
untill What if God...
 
 |--2-4-5------------2-4-5------------2-4-5---------------------------|
 |--------2-2-3-5----------2-2-3-5----------2-2-3-5----5-5-5-5-3-2----|
 |-----------------------------------------------------------------2--|
 |--------------------------------------------------------------------|
 |--------------------------------------------------------------------|
 |--------------------------------------------------------------------|

verse = chords
Chorus = chords
untill what if God... :
 
 |--2-4-5------------2-4-5------------2-4-5---------------------------|
 |--------2-2-3-5----------2-2-3-5----------2-2-3-5----5-5-5-5-3-2----|
 |-----------------------------------------------------------------2--|
 |--------------------------------------------------------------------|
 |--------------------------------------------------------------------|
 |--------------------------------------------------------------------|

Bridge:
 
 |--------------------------------------------------------------------------|
 |--5-5-5-5-3-2------5-5-5-5-3-2-0-2----5-5-5-5-3-2-0------5-5-5-5-3-2-0-2--|
 |--------------2-------------------------------------2---------------------|
 |--------------------------------------------------------------------------|
 |--------------------------------------------------------------------------|
 |--------------------------------------------------------------------------|

Solo ...
Chorus = chords
untill what if God... :
 
 |--2-4-5------------2-4-5------------2-4-5---------------------------|
 |--------2-2-3-5----------2-2-3-5----------2-2-3-5----5-5-5-5-3-2----|
 |-----------------------------------------------------------------2--|
 |--------------------------------------------------------------------|
 |--------------------------------------------------------------------|
 |--------------------------------------------------------------------|

Bridge 2:
 
 |-------------------------------------------------------|
 |--5-5-5-5-3-2------5-5-5-5-3-2-0------5-5-5-5-3-2-0-2--|
 |--------------2------------------2---------------------|
 |-------------------------------------------------------|
 |-------------------------------------------------------|
 |-------------------------------------------------------|


Important: The song above is NOT stored on the Chordie server. The original song is hosted at www.guitaretab.com. Chordie works as a search engine and provides on-the-fly formatting. Chordie does not index songs against artists'/composers' will. To remove this song please click here.

Text color:
Chord color:
Chord grids: 
Font size:    
Page size: 

A D Dsus2 E E6 Esus F#m
Rate #1 of 8 versions

Jango Player

Login - add to songbook

SHARE PAGE  




You need to log in to post comments