Guitar Tabs, Chords and Lyrics
Server problems seems to be fixed. Chordie has been experiencing problems with songs disappearing. These issues now seems to be fixed, but still verifying the fix. If you find anything strange, please email admin@chordie.com.


Home  Joe Satriani

-=(Home)=-
from the CD Joe Satriani
by Joe Satriani
[G] [Csus2] [G] [Csus2] [G] [Csus2] 
 
 |----------------|-----------------|----------------|-------------------
 |----------------|---------12------|----------------|-------------------
 |--12/14\12--12--|--12/14------12--|----------------|--12/14--12--12----
 |----------------|-----------------|--12/14\12--12--|-------------------
 |----------------|-----------------|----------------|-------------------
 |----------------|-----------------|----------------|-------------------

[Bm] [Csus2] [D] [G] [Csus2] [G] 
 
 |--------------------------------------|--15h17--15--15--|--15h17-------
 |--------------------------------------|-----------------|--------------
 |--11/-(12)\(11)--9--------------------|-----------------|--------------
 |--------------------12--12/14\12--12--|-----------------|--------------
 |--------------------------------------|-----------------|--------------
 |--------------------------------------|-----------------|--------------

[Csus2] [G] [Csus2] [Bm] 
 
 17-/(19)--15--|-------------------|--15h17--15--15--|--20-/(22)\(20)----
 --------------|--15-/(17)p15--17--|-----------------|-------------------
 --------------|-------------------|-----------------|-------------------
 --------------|-------------------|-----------------|-------------------
 --------------|-------------------|-----------------|-------------------
 --------------|-------------------|-----------------|-------------------

[Csus2] [Bm] [Csus2] [Bm] [Csus2] 
 
 19--17--15--|----------------------------|--20-/(22)\(20)--19--17\15----
 ------------|----------------------------|------------------------------
 ------------|--17-/(19)\(17)--16--14\12--|------------------------------
 ------------|----------------------------|------------------------------
 ------------|----------------------------|------------------------------
 ------------|----------------------------|------------------------------

Gsus4(Add E) g[D5]host bend [Gsus4(Add] ghost be[E)]nd
 
 |--------------------------------------------|--------------------------
 |--17-/(18)\(17)--15--17---(17)/(18)\17--15--|--------------------------
 |--------------------------------------------|---(16)/-(17)\(16)--14----
 |--------------------------------------------|--------------------------
 |--------------------------------------------|--------------------------
 |--------------------------------------------|--------------------------

[D5]  
 
 -----------------------------------------|------------------------------
 -----------------------------------------|------------------------------
 \12--14--12~~~---------------------------|------------------------------
 ----------------14--14/-(15)\(14)--12~~~\|------------------------------
 -----------------------------------------|------------------------------
 -----------------------------------------|------------------------------

[G(Add]P.M...[A)].............................
 
 ------------------------------------------------------------------------
 ------------------------------------------------------------------------
 ------------------------------------------------------------------------
 -12--12--12--12--10--12--12--10--12-------------------------------------
 ------------------------------------------------------------------------
 ------------------------------------------------------------------------

[Csus2].................................. P.M....... P.M.... [G]
 
 ------------------------------------------------------------------------
 ------------------------------------------------------------------------
 -------------------------------------12---------------12----------------
 -12--x--12--12--10--12--12---10--12-------12--10--12------12--10--12~~~-
 ------------------------------------------------------------------------
 ------------------------------------------------------------------------

P.M...........................[Csus2]..........
 
 --|---------------------------------------------------------------------
 --|---------------------------------------------------------------------
 --|-------------------------------------------12------------------------
 --|---12--12--12--12--12--10---12--12--x--12------12--10--12--10--------
 --|---------------------------------------------------------------------
 --|---------------------------------------------------------------------

[G] [Csus2]  
 
 -------------------------------|----------------------------------|-----
 -------------------------------|----------------------------------|-----
 ------------12-----------------|----------------------------------|-----
 12--10--12------12--10--12~~~--|--10h12p10\9--10--9\7\5/7/9--9\5--|-----
 -------------------------------|----------------------------------|-----
 -------------------------------|----------------------------------|-----

[Asus4] [D] [G]  
 
 ----------------------------------|-------------------------------------
 ----------------------------------|-------------------------------------
 ----------------------------------|-------------------------------------
 4/(5)\4h2p0h2/4/5--4/5\4\2/4\2p0--|----------------5--7--7/9--9--10-----
 ----------------------------------|-----2--3--5/7-----------------------
 ----------------------------------|--5----------------------------------

Csus2 P.M.
 
 |------------------------------------------|----------------------------
 |------------------------------------------|----------------------------
 |-------------------------------------(5)--|--7h11--11--11--7h11p7------
 |--9h10p9\7--------------------------------|----------------------------
 |------------10--10/12--12\10--10----------|----------------------------
 |------------------------------------------|----------------------------

[G] [Csus2] [G]  
 
 ------------|----------------------------|------------------------------
 ------------|----------------------------|------------------------------
 \4--4/7~~~--|--9/12\9\7--7/9\7\4/7--7\5--|--4/-(5)\(4)\2/4--4/-(5)------
 ------------|----------------------------|------------------------------
 ------------|----------------------------|------------------------------
 ------------|----------------------------|------------------------------

[Csus2] [Asus4] 
 
 ------------------------------------------------------------------------
 ------------------------------------------------------------------------
 \(4)~~~--4~~~p0--2/4\2--4p2p0-------0----0--2h4p2p0----0----------------
 -------------------------------x/4---/4------------/4-----4\2--2p0------
 ------------------------------------------------------------------------
 ------------------------------------------------------------------------

[D] [Asus4]  
 
 --------------------------|---------------------------------------------
 --------------------------|---------------------------------------------
 --------------------------|---------------------------------------------
 --------------------------|---------------------------------------------
 3--2--3--2/3--3/5--5/7\5--|--5/7\5p3--5--3\2--3--2/-(3)\2---------------
 --------------------------|--------------------------------3/5\3--0-----

[d]  
 
 -----|--|--15h17--15--15--|--15h17--15h17--17/-(19)--15~~~--|-----------
 -----|--|-----------------|---------------------------------|--15/------
 -----|--|-----------------|---------------------------------|-----------
 -----|--|-----------------|---------------------------------|-----------
 -----|--|-----------------|---------------------------------|-----------
 3/5\-|--|-----------------|---------------------------------|-----------
 -----------------|--15/-(17)\(15)--15--|--------------------------------
 (17)\(15)p13h15--|---------------------|--19/-(20)\(19)p17--------------
 -----------------|---------------------|--------------------19--19------
 -----------------|---------------------|--------------------------------
 -----------------|---------------------|--------------------------------
 -----------------|---------------------|--------------------------------
 ----------|--------------------------------------------|--15/-(17)------
 ----------|--------------------------------------------|----------------
 /(21)~~~--|--16/-(17)\(16)--14------14-----------------|----------------
 ----------|---------------------17------17/-(19)\(17)--|----------------
 ----------|--------------------------------------------|----------------
 ----------|--------------------------------------------|----------------
 \(15)--14------------|------------------------------------------|-------
 -----------17--(17)--|------------------------------------------|-------
 ---------------------|--14/-(15)\(14)---------------------------|-------
 ---------------------|-----------------12/-(14)\(12)--12/14\12--|-------
 ---------------------|------------------------------------------|-------
 ---------------------|------------------------------------------|-------
 15/-(17)\(15)--14-------------------------------------------------------
 -------------------x--15/(17)~~~\(15)-----(15)--13--12------------------
 --------------------------------------------------------14--12--11------
 ------------------------------------------------------------------------
 ------------------------------------------------------------------------
 ------------------------------------------------------------------------
 ---------------------------------------|--------------------------------
 ---------------------------------------|--------------------------------
 9--------------------------------------|--12h14--12--12--12/14--14------
 ---12--10--9--7--5--4--5/7/-(9)\(7)--7\|--------------------------------
 ---------------------------------------|--------------------------------
 ---------------------------------------|--------------------------------
 -----------------------------------------------|------------------------
 -----------------------------------------------|------------------------
 /-(16)--12-------------------12/14--12--12~~~--|--11/(12)\(11)----------
 ------------12/14\12--12~~~--------------------|----------------14------
 -----------------------------------------------|------------------------
 -----------------------------------------------|------------------------

P.M.
 
 ----------------|-------------------------------------------------------
 ----------------|-------------------------------------------------------
 ----------------|-------------------------------------------------------
 12-------12/14--|-------------------------------------------------------
 -----14---------|-------------------------------------------------------
 ----------------|-------------------------------------------------------

========================================================================
== TABLATURE EXPLANATION ==
========================================================================
 
 ---------- ----------
 ----5h8--- Hammeron ----(8)--- Ghost Note
 ---------- ----------
 ----5p8--- Pulloff ----------
 ---------- ----------
 ----5/8--- Slide Up -----x---- Dead Note
 ---------- ----------
 ----5\8--- Slide Down ----------
 ---------- ||------|| Repeat Start & End
 ----5~~~-- Vibrato ||*----*||
 ---------- ||*----*||
 ---------- ||------||
 ---------- ----------
 -5/(6)\(5) bend-release --5/(6)--- bend
 ---------- ----------
 ---------- ----------

========================================================================
home
from "joe satriani"
Joe Satriani
Transcrib
 
 |-----------------------|-------------------------------------------------------
 |-----------------------|-------------------------------------------------------
 |--12/14-----12--12~~~--|--12/14~~~/16-----12~~~--------------12/14-----12------
 |-----------------------|--------------------------/14~~~-----------------------
 |-----------------------|-------------------------------------------------------
 |-----------------------|-------------------------------------------------------
 ----------------------------------------------------|--15/17--15--15~~~--|------
 ----------------------------------------------------|--------------------|------
 12~~~\11-----11h12p11-------------------------------|--------------------|------
 -----------------------14--12-----12/14~~~--12--12--|--------------------|------
 ----------------------------------------------------|--------------------|------
 ----------------------------------------------------|--------------------|------
 15/17--19--15~~~-------------------------|--15/17-----15--15~~~--15-----15------
 ------------------15/17-----15p13h15~~~--|--------------------------------------
 -----------------------------------------|--------------------------------------
 -----------------------------------------|--------------------------------------
 -----------------------------------------|--------------------------------------
 -----------------------------------------|--------------------------------------
 /22~~~-----19--17-----15~~~--|-------------------------------|--22~~~--19-------
 -----------------------------|--13/15~~~--13--12-------------|------------------
 -----------------------------|--------------------14--12~~~--|------------------
 -----------------------------|-------------------------------|------------------
 -----------------------------|-------------------------------|------------------
 -----------------------------|-------------------------------|------------------

BU then BD BU then BD BU then BD
 
 17--15~~~--|-------------------------------------------------|------------------
 -----------|------------17p15~~~--17---------------17p15-----|------------------
 -----------|-------------------------------------------------|------------16----
 -----------|-------------------------------------------------|------------------
 -----------|-------------------------------------------------|------------------
 -----------|-------------------------------------------------|------------------
 ------------------------------------|-------------------------------------------
 ------------------------------------|-------------------------------------------
 p14\12--14--12~~~-------------------|-------------------------------------------
 -------------------14-----14p12~~~--|--12--10--12--12--10--12--12--10--12-------
 ------------------------------------|-------------------------------------------
 ------------------------------------|-------------------------------------------

legato
 
 -------------||---------------------------------------------------------|-------
 -------------||---------------------------------------------------------|-------
 12----------*||---------------------------------------------------------|-------
 ----12--10--*||--12~~~---------10h12p10p9~~~--10--9---------------------|-------
 -------------||--------------------------------------12--10--12/14--10--|-------
 -------------||---------------------------------------------------------|-------


Important: The song above is NOT stored on the Chordie server. The original song is hosted at www.guitaretab.com. Chordie works as a search engine and provides on-the-fly formatting. Chordie does not index songs against artists'/composers' will. To remove this song please click here.

Text color:
Chord color:
Chord grids: 
Font size:    
Page size: 

Asus4 Bm Csus2 D D5 G
Rate #1 of 3 versions

Jango Player

Login - add to songbook

SHARE PAGE  




You need to log in to post comments