Guitar Tabs, Chords and Lyrics
Server problems seems to be fixed. Chordie has been experiencing problems with songs disappearing. These issues now seems to be fixed, but still verifying the fix. If you find anything strange, please email admin@chordie.com.


War   Joe Satriani

 
 |-0-------0-------0-------0-------|-0-------0-------0-------0--------|
 |-5h6p5h6-5h6p5h6-5h6p5h6-5h6p5h6-|-5h6p5h6-5h6p5h6-5h6p5h6-5h6p5h6--|
 |---------------------------------|----------------------------------|
 |---------------------------------|----------------------------------|
 |---------------------------------|----------------------------------|
 |---------------------------------|----------------------------------|
 |--0-----------0-----------0-----------0----------|

 


 |-12h13p12h13-12h13p12h13-12h13p12h13-12h13p12h13-|


 

 
 |-------------------------------------------------|
 |-------------------------------------------------|
 |-------------------------------------------------|
 |-------------------------------------------------|
 |--0-----------0-----------0---------|
 |-17h18p17h18-17h18p17h18-17---------|
 |------------------------------------|
 |------------------------------------|
 |------------------------------------|
 |-----------------------------(15)\--|

 


 


 1.,2.,3.


 PM--| PM|


 

 
 ||------------------------|-------------------0----||
 ||o-----------------------|-------------------0---o||
 ||------------------------|-------------------2----||
 ||--------2------2--------|-------2------2----3----||
 ||o-------2--2---2----2-3-|-------2--2---2----x---o||
 ||--0-0-0-0--0-0-0--1-----|-0-0-0-0--0-0-0--1-1----||

 


 


 Verse


 4.


 ~~


 

 
 |---------------------||----------------------------|
 |---------------------||-10b12==(10)-(10)r-12-12----|
 |---------------------||----------------------------|
 |-3-2-0---------------||----------------------------|
 |-------3-2-0---------||----------------------------|
 |-------------4-1-0---||----------------------------|

 


 


 ~


 

 
 |------------------------------------|--------------|
 |-(12)--10-12-12b13==(12)-(12)r12p10-|-12-----------|
 |------------------------------------|------\9-9----|
 |------------------------------------|--------------|
 |------------------------------------|--------------|
 |------------------------------------|--------------|

 


 


 ~~~


 

 
 |------------|--------------------|
 |------------|-------\10-10-12-13-|
 |-(9)--------|-(9)----------------|
 |------------|--------------------|
 |------------|--------------------|
 |------------|--------------------|

 


 


 ~~ ~~~~


 

 
 |---------------------------------------|---------|
 |-13s15-(15)-13-12p10--(10)-12b13==(12)r|=(12)----|
 |---------------------------------------|---------|
 |---------------------------------------|---------|
 |---------------------------------------|---------|
 |---------------------------------------|---------|

 


 


 ~~~~ ~~ ~~


 

 
 |-----------------|----------------------------|----------14-15-17--(17)-15-14-|
 |-(12)----(12)----|-17b19==(17)-(17)r-19-19----|-(19)--17----------------------|
 |-----------------|----------------------------|-------------------------------|
 |-----------------|----------------------------|-------------------------------|
 |-----------------|----------------------------|-------------------------------|
 |-----------------|----------------------------|-------------------------------|

 


 


 ~~


 

 
 |----------14b15==(14)r14--------|--------------------------|-------|
 |-17--(17)-----------------------|---------17b19==(17)r==17-|-17----|
 |--------------------------14s16-|-(16)---------------------|-------|
 |--------------------------------|--------------------------|-------|
 |--------------------------------|--------------------------|-------|
 |--------------------------------|--------------------------|-------|

 


 


 ~~


 

 
 |--------------------|-----------|---------------|----------------------------|
 |-(17)------17----17-|-16--------|-(16)--x\------|-------------------12-12----|
 |--------14--x-14--x-|--x--------|-------x\------|-14b16==(14)-(14)r----------|
 |--------14-14-14-14-|-13--------|-(13)--x\------|----------------------------|
 |--------------------|-----------|---------------|----------------------------|
 |--------------------|-----------|---------------|----------------------------|
 |-------------------------------------|
 |-(12)--\10-12-12h13-(13)-12h13p12s10-|
 |-------------------------------------|
 |-------------------------------------|
 |-------------------------------------|
 |-------------------------------------|

 


 


 ~~~~~~~~~~


 

 
 |------------------------|-------------|----------------------|
 |-12--(12)-12s17s12--12--|-(12)--------|-(12)---\10-10-12-13--|
 |------------------------|-------------|----------------------|
 |------------------------|-------------|----------------------|
 |------------------------|-------------|----------------------|
 |------------------------|-------------|----------------------|

 


 


 ~~ ~~


 

 
 |---------------------------------------|------------------------|
 |-13s15-(15)-13-12p10--(10)-12b13==(12)r|=12---------------------|
 |---------------------------------------|-----\7--7s9b10==(9)r9--|
 |---------------------------------------|------------------------|
 |---------------------------------------|------------------------|
 |---------------------------------------|------------------------|

 


 


 ~~~ ~~~~


 

 
 |---------------|-----------------------------|
 |---------------|-/17b19==(17)r-19-19-(19)----|
 |-(9)----(9)----|-----------------------------|
 |---------------|-----------------------------|
 |---------------|-----------------------------|
 |---------------|-----------------------------|

 


 


 ~~


 

 
 |-----------14-15-17--(17)-15-14-|
 |-(19)--^17----------------------|
 |-------^-x----------------------|
 |-------^-x----------------------|
 |--------------------------------|
 |--------------------------------|

 


 


 ~~ ~~


 

 
 |----------14b15==(14)r14--------|--------------------------|
 |-17--(17)-----------------------|---------17b19==(17)r==17-|
 |--------------------------14s16-|-(16)---------------------|
 |--------------------------------|--------------------------|
 |--------------------------------|--------------------------|
 |--------------------------------|--------------------------|
 |-------------|--------------------|-----------|---------------|
 |-(17)--------|-(17)------17----17-|-16--------|-(16)----x\----|
 |-------------|--------14--x-14--x-|--x--------|---------x\----|
 |-------------|--------14-14-14-14-|-13--------|-(13)----x\----|
 |-------------|--------------------|-----------|---------------|
 |-------------|--------------------|-----------|---------------|

 


 


 Bridge


 $


 ~~


 

 
 ||--20b22==(20)----(20)r==20-|-20--------|
 ||o--------------------------|-----------|
 ||---------------------------|-----------|
 ||---------------------------|-----------|
 ||o--------------------------|-----------|
 ||---------------------------|-----------|

 


 


 ~~


 

 
 |-22b24==(22)----(22)r-22b24==(22)-(22)r22p19-|---------------------------|
 |---------------------------------------------|-22b24==(22)r---24-(24)----|
 |---------------------------------------------|---------------------------|
 |---------------------------------------------|---------------------------|
 |---------------------------------------------|---------------------------|
 |---------------------------------------------|---------------------------|

 


 


 1.


 ~~


 

 
 |-20b22==(20)----(20)r==20-|-20--------|-22b24==(22)----(22)r\--12h13p12----|
 |--------------------------|-----------|---------------------------------15-|
 |--------------------------|-----------|------------------------------------|
 |--------------------------|-----------|------------------------------------|
 |--------------------------|-----------|------------------------------------|
 |--------------------------|-----------|------------------------------------|
 |-12---------------------||
 |-----15b17==(15)r------o||
 |------------------------||
 |------------------------||
 |-----------------------o||
 |------------------------||

 


 


 2.


 

 
 |-22b24==(22)-22-(22)-22-22-22-22-22-22-22-(22)-22-22-22-|
 |--------------------------------------------------------|
 |--------------------------------------------------------|
 |--------------------------------------------------------|
 |--------------------------------------------------------|
 |--------------------------------------------------------|

 


 


 To Coda


 

 
 |-22-22-22-22-(22)-22-22-22-22-22-22-22-(22)-22-22-22-|
 |-----------------------------------------------------|
 |-----------------------------------------------------|
 |-----------------------------------------------------|
 |-----------------------------------------------------|
 |-----------------------------------------------------|

 


 


 ~~


 

 
 |-22-22-22-22-(22)-22-22-22-22-22-22-22r\--|
 |------------------------------------------|
 |------------------------------------------|
 |------------------------------------------|
 |------------------------------------------|
 |------------------------------------------|

 


 


 ~~~~~


 

 
 |-17-16-13---------------------------------||
 |----------17-15-13-------15b17==(15)r-----||
 |-------------------16-14------------------||
 |------------------------------------------||
 |------------------------------------------||
 |------------------------------------------||

 


 


 3x


 

 
 ||-------------------------|------------------------||
 ||o------------------------|-----------------------o||
 ||-------------------------|------------------------||
 ||-------------------------|--------------------8---||
 ||o-8p6--------------------|--------------------8--o||
 ||------8-8--x-8-x-8-8-6-8-|-x-x-8-8--x-8-x-8-8-6---||

 


 


 Guitar Solo


 

 
 |------------------------------------------|
 |--10b11==(10)---(10)r10-8----8-10-11p10p==|
 |---x----------------------11--------------|
 |---x--------------------------------------|
 |------------------------------------------|
 |------------------------------------------|
 |-----------------------------------------|
 |-8----8-10p8----8------------------------|
 |---11--------10---11-10p8----8-10p8----8-|
 |--------------------------10--------10---|
 |-----------------------------------------|
 |-----------------------------------------|
 |--------------------------------------------|
 |-------8-10-8h10p8----8---------------------|
 |-10-11-------------11---11-10-8s7-10-8p7----|
 |-----------------------------------------10-|
 |--------------------------------------------|
 |--------------------------------------------|

 


 


 ~


 

 
 |------------------------------|------------------------------|
 |------------------------------|------------------------------|
 |-7h8p7----7-------------------|------------------------------|
 |-------10---10p0-7p0-7--------|----------------------------8-|
 |------------------------/x\---|-6-8-6-6h8p6-8-8p6---6-8s10---|
 |----------------------------8-|-------------------8----------|

 


 


 ~ ~


 

 
 |---------------------------------------|
 |---------------------------------------|
 |---------------------------8-(8)-10p8--|
 |----10----8-(8)-10p8-10-10-------------|
 |-10----10------------------------------|
 |---------------------------------------|
 |-------------------------------------------------------------|
 |-------------------------------------------------------------|
 |-10-10pb11r10p8-10-10pb11r10p8-10-10pb11r10p8-10-10pb11r10p8-|
 |-------------------------------------------------------------|
 |-------------------------------------------------------------|
 |-------------------------------------------------------------|

 


 


 ~~~~~


 

 
 |-----------------------||
 |-11b13==(11)r----x\----||
 |-----------------x\----||
 |-----------------x\----||
 |-----------------------||
 |-----------------------||
 |-----5-------5-------5-------5-------5-------5h=|
 |-------8p5-----8p5-----8p5-----8p5-----8p5------|
 |-----------7-------7-------7-------7-------7----|
 |-5h7--------------------------------------------|
 |------------------------------------------------|
 |------------------------------------------------|
 |-7p5---5-----5--------------------------------------|
 |-----8---8p5---8p5-8p5---5-7h8-7p5---5h7h8p7p5---5h=|
 |-----------------------7-----------8-----------8----|
 |----------------------------------------------------|
 |----------------------------------------------------|
 |----------------------------------------------------|
 |---------------------------------------------------------------------|
 |-8p5h7h8p7p5-8p5h7h8p7p5-8p5h7h8p7p5-------------4h5h7p5p4s5h7h8p====|
 |-------------------------------------8p7p5s4h5h7---------------------|
 |---------------------------------------------------------------------|
 |---------------------------------------------------------------------|
 |---------------------------------------------------------------------|
 |---------------------------------------------------------------------|
 |-7p5-----------------------------------------------------------------|

 


 |-----8p7p5s4h5h7p5p4s5h7h9p7p5s4h5h7p5p4s5h7h9p7p5s4h5h7p5p4s5h7h====|


 

 
 |---------------------------------------------------------------------|
 |---------------------------------------------------------------------|
 |---------------------------------------------------------------------|
 |-------------------------------------------------------------------|
 |-------------------------------------------------------------------|
 |-9p7p5s4h5h7p5p4s5h7h9p7p5s4h5h7p5p4-------------------------------|
 |-------------------------------------7p4h6h7p6p4s2-4h5p4p2---2-----|
 |-----------------------------------------------------------5---3h==|
 |-------------------------------------------------------------------|
 |-----------------------------------------------------------|
 |-----------------------------------------------------------|
 |-----------------------------------------------------------|
 |-------------------------------------------2h4h5p4p2-------|
 |-5p3p2s3h5h7p5p3-------------2h3h5p3p2h3h5-----------5-3\--|
 |-----------------7p5p3s2h3h5-------------------------------|
 |--------------------------------|
 |------------------------13tr10--|
 |-----------------12tr9----------|
 |---------12tr10-----------------|
 |-12tr10-------------------------|
 |--------------------------------|

 


 


 T T


 

 
 |-------------12h15-17-11b12==(11)r-14-14tr16-------||
 |-/12h15-17p0-----------------------------------x\--||
 |-----------------------------------------------x\--||
 |-----------------------------------------------x\--||
 |---------------------------------------------------||
 |---------------------------------------------------||
 |------------------------------------------------------------------------------------------------------------|
 |------------------------------------------------------------------------------------------------------------|

 


 |-20b22==(20)r(20)p17h20b22==(20)r(20)p17h20b22==(20)r(20)p17h20b22==(20)r(20)p17h20b22==(20)r(20)p17h20b22==|


 

 
 |------------------------------------------------------------------------------------------------------------|
 |------------------------------------------------------------------------------------------------------------|
 |------------------------------------------------------------------------------------------------------------|
 |-----------------------------------------------------------------------------------------------------|
 |-----------------------------------------------------------------------------------------------------|

 


 |-(20)r(20)p17h20b22==(20)r(20)p17h20b22==(20)r(20)p17h20b22==(20)r(20)p17h20b22==(20)r(20)p17-\20p17-|


 

 
 |-----------------------------------------------------------------------------------------------------|
 |-----------------------------------------------------------------------------------------------------|
 |-----------------------------------------------------------------------------------------------------|
 |-------------------------|
 |-\19-\20-\19-\20-\19-\20-|
 |-------------------------|
 |-------------------------|
 |-------------------------|
 |-------------------------|
 |----------------------------------|------------------------------------------|
 |-\19-\20-20b23==(20)-(20)---(20)r-|-8-8-8-8-8-8-8s10-10-10-10-10-10s13-13-13-|
 |----------------------------------|-9-9-9-9-9-9-9s11-11-11-11-11-11s14-14-14-|
 |----------------------------------|------------------------------------------|
 |----------------------------------|------------------------------------------|
 |----------------------------------|------------------------------------------|
 |-----------------------------------------------|
 |-13-x-16-16-16-16-16-16-16s17-17-17-17-17-x-19-|
 |-14-x-16-16-16-16-16-16-16s17-17-17-17-17-x-20-|
 |-----------------------------------------------|
 |-----------------------------------------------|
 |-----------------------------------------------|
 |------------------------------20b22==(20)-(20)--|
 |-19-19-19-19-20-20-20-20-20-x-------------------|
 |-20-20-20-20-21-21-21-21-21-x-------------------|
 |------------------------------------------------|
 |------------------------------------------------|
 |------------------------------------------------|

 


 


 ~~~~


 

 
 |-(20)r-22b24==(22)---(22)r------||-^0--------|
 |----------------------------x\--||-^0--------|
 |----------------------------x\--||-^4--------|
 |----------------------------x\--||-^2--------|
 |--------------------------------||-^2--------|
 |--------------------------------||-^0--------|
 |-(0)------------------|------------------|---------------|
 |-(0)------------------|------------------|---------------|
 |-(4)--/4-/5-/7---/5p4-|-/5------(5)-/4p2-|-/4----[4]\----|
 |-(2)------------------|------------------|---------------|
 |-(2)------------------|------------------|---------------|
 |-(0)------------------|------------------|---------------|

 


 


 ~~


 

 
 |----------------------------|-------------------------------------|
 |----------------------------|-------\10-12-12b13==(12)-(12)r12p10-|
 |-14b16==(14)-(14)r-16-16----|-(16)--------------------------------|
 |----------------------------|-------------------------------------|
 |----------------------------|-------------------------------------|
 |----------------------------|-------------------------------------|

 


 


 ~~~


 

 
 |----------------|------------|------------------------|
 |-12-------------|------------|-------12s10-10-12-13---|
 |------\9-(9)----|-(9)--------|-(9)--------------------|
 |----------------|------------|------------------------|
 |----------------|------------|------------------------|
 |----------------|------------|------------------------|

 


 


 ~~


 

 
 |---------------------------------|-----------|
 |-13s15-(15)-13-12p10--(10)-12h13-|-12--------|
 |---------------------------------|-----------|
 |---------------------------------|-----------|
 |---------------------------------|-----------|
 |---------------------------------|-----------|

 


 


 ~~


 

 
 |-------------|----------------------------|
 |-(12)--------|-17b19==(17)-(17)r-19-19----|
 |-------------|----------------------------|
 |-------------|----------------------------|
 |-------------|----------------------------|
 |-------------|----------------------------|

 


 


 ~~


 

 
 |----------14-15-17--(17)-15-14-|
 |-(19)--17----------------------|
 |-------------------------------|
 |-------------------------------|
 |-------------------------------|
 |-------------------------------|

 


 


 ~~~~~~~


 

 
 |----------14b15==(14)r14--------|------------------------|
 |-17--(17)-----------------------|-------17b19==(17)r==17-|
 |--------------------------14s16-|-16---------------------|
 |--------------------------------|------------------------|
 |--------------------------------|------------------------|
 |--------------------------------|------------------------|

 


 


 D.S. al Coda


 

 
 |-----------|--------------------|-----------|------------||
 |-17--------|-(17)------17----17-|-16--------|-x\---------||
 |-----------|--------14--x-14--x-|--x--------|-x\---------||
 |-----------|--------14-14-14-14-|-13--------|-x\---------||
 |-----------|--------------------|-----------|------------||
 |-----------|--------------------|-----------|------------||

 


 


 &


 

 
 |-22-22-22-22-(22)-22-22-22-22-22-22-22-22-22-22-|
 |------------------------------------------------|
 |------------------------------------------------|
 |------------------------------------------------|
 |------------------------------------------------|
 |------------------------------------------------|
 |-22-22-22-22-(22)-22-22-22-22-22-22-22-22-|
 |------------------------------------------|
 |------------------------------------------|
 |------------------------------------------|
 |------------------------------------------|
 |------------------------------------------|
 |-22-22-22-22-(22)-22-22-22-22-22-22-22-22-|
 |------------------------------------------|
 |------------------------------------------|
 |------------------------------------------|
 |------------------------------------------|
 |------------------------------------------|
 |-22-22-22-22-(22)-22-22-22-22-22-22-22-22--|
 |-------------------------------------------|
 |-------------------------------------------|
 |-------------------------------------------|
 |-------------------------------------------|
 |-------------------------------------------|

 


 


 ~~~~~~~


 

 
 |-22-22-22-22-(22)-22-22-22-22-22-22-22-22-22-|-22--22r--------|
 |---------------------------------------------|------------x\--|
 |---------------------------------------------|------------x\--|
 |---------------------------------------------|------------x\--|
 |---------------------------------------------|----------------|
 |---------------------------------------------|----------------|

 


 


 PM--| PM| PM--| PM|


 7x


 

 
 ||--------0--x---0-------|-------0--x---0---0---||
 ||o-------0--x---0-------|-------0--x---0---3--o||
 ||-----------------------|------------------2---||
 ||-----------------------|------------------3---||
 ||o------------------2-3-|---------------------o||
 ||--0-0-0------0---1-----|-0-0-0------0---1-----||
 |----------|------------|------------|--------*|
 |----------|------------|------------|--------*|
 |----------|------------|------------|--------*|
 |----------|------------|------------|--------*|
 |----------|------------|------------|--------*|
 |-0--------|-(0)--------|-(0)--------|-(0)----*|


Important: The song above is NOT stored on the Chordie server. The original song is hosted at www.guitaretab.com. Chordie works as a search engine and provides on-the-fly formatting. Chordie does not index songs against artists'/composers' will. To remove this song please click here.

This song is displayed as text-only. Transposing and tuning is only available for chordpro-songs.
Rate #1 of 4 versions

Jango Player

Login - add to songbook

SHARE PAGE  



You need to log in to post comments