Guitar Tabs, Chords and Lyrics
Server problems seems to be fixed. Chordie has been experiencing problems with songs disappearing. These issues now seems to be fixed, but still verifying the fix. If you find anything strange, please email admin@chordie.com.


Revelation   Joe Satriani

 
 |-------------------------------------------------------------------------------|

 


 Joe Satriani - Revelation


 

 
 |-------------------------------------------------------------------------------|

 


 


 Tabbed by : solopractice


 E-mail : linkinpark_neon@yahoo.com


 Album : Professor Satchafunkilus and the Musterion Of Rock


 


 Tuning : Standard (E-A-D-G-B-E)


 


 Intro


 

 
 e|--------------------------------------------------------------|
 b|------------------------------------------3---3------3-3------|
 g|-11---9---11---9---11----7---7---7---7----2---2--2p0-0-0------| (4x)
 d|-9----9---9----9---9-----5---5---5---5----0---0------0-0------|
 a|-7----7---7----7---7-----3---3---3---3----0---0------0-0------|
 e|----7---7----7---7----7----3---3---3----3---3---3-------------|

 


 


 VERSE


 


 

 
 e|-------------------------------------------------------------------|
 b|-------------------------------------------------------------------|
 g|--9b10r9~-7~--5----------------------------------------------------|
 d|----------------9-7--7-9~--9-9h10p9p7--7h9~------------------------|
 a|-------------------------------------------------------------------|
 e|-------------------------------------------------------------------|
 e|-----------------------------------------------------------|
 b|-----------------------------------------------------------|
 g|--9b10r9~-*7~--5-------------------------------------------|
 d|-----------------9-7-------------5----5--------------------|
 a|----------------------5~-----5-7---7----7------------------|
 e|-----------------------------------------------------------|
 e|-----------------------------10bhalf--8h10p8h10p8---------------------|
 b|----------10-12---10-9-10-12----------------------10~--12\8--10\7-----|
 g|--9b10r9~----------------------------------------------------------9~-|
 d|----------------------------------------------------------------------|
 a|----------------------------------------------------------------------|
 e|----------------------------------------------------------------------|
 e|-------------------------------------------------------------------|
 b|-------------------------------------------------------------------|
 g|--9b10r9~-7~--5----------------------------------------------------|
 d|----------------9-7--5(whammy bar effect,push down repeatedly)-----|
 a|-------------------------------(then pick scrape down d string)----|
 e|-------------------------------------------------------------------|

 


 


 PreChorus


 


 

 
 e|--17-17-15-17~--17-15-17-18bfull~----------------------|
 b|----------------------------------17b18r17b18r17~--15--|
 g|-------------------------------------------------------|
 d|-------------------------------------------------------|
 a|-------------------------------------------------------|
 e|-------------------------------------------------------|

 


 


 Rhythm


 

 
 e|------------------------------------------------------|
 b|------------------------------------------------------|
 g|-7-7-7-7-7-7-7-7-7-7-7--2-2-2-2-2-2-2-2-2-2-2-2-------|
 d|-7-7-7-7-7-7-7-7-7-7-7--2-2-2-2-2-2-2-2-2-2-2-0-------|
 a|-5-5-5-5-5-5-5-5-5-5-5--0-0-0-0-0-0-0-0-0-0-0-0-------|
 e|------------------------------------------------------|
 e|--17-17-15-17~--17-15-17-18bfull~--20bfull~------------|
 b|-------------------------------------------------------|
 g|-------------------------------------------------------|
 d|-------------------------------------------------------|
 a|-------------------------------------------------------|
 e|-------------------------------------------------------|

 


 


 Rhythm


 

 
 e|------------------------------------------------------|
 b|------------------------------------------------------|
 g|-7-7-7-7-7-7-7-7-7-7-7--2-2-2-2-2-2-2-2-2-2-2-2-------|
 d|-7-7-7-7-7-7-7-7-7-7-7--2-2-2-2-2-2-2-2-2-2-2-0-------|
 a|-5-5-5-5-5-5-5-5-5-5-5--0-0-0-0-0-0-0-0-0-0-0-0-------|
 e|------------------------------------------------------|

 


 


 CHORUS


 


 Guitar 1


 

 
 e|------------------------10--------------------------------|
 b|-------10-12---------10-----------------------------------|
 g|-9--12--------9~--12-------12b13r12-11-9--7---------------|
 d|---------------------------------------------10-9--7-9----|
 a|----------------------------------------------------------|
 e|----------------------------------------------------------|

 


 


 Guitar 2


 

 
 e|-------------------------------------------------------------------|
 b|---------------------------15-----------12-------------------------|
 g|----9------12------14---12-----12-----9-----12----------12---------|
 d|--9-----10------12----------------9-------------12---9------7--9---|
 a|-------------------------------------------------------------------|
 e|-------------------------------------------------------------------|

 


 


 Guitar 1


 

 
 e|------------------------10---------------------------------|
 b|-------10-12---------10------------------------------------|
 g|-9--12--------9~--12-------12b13r12-11-9--7--11/12--11--7~-|
 d|-----------------------------------------------------------|
 a|-----------------------------------------------------------|
 e|-----------------------------------------------------------|

 


 


 Guitar 2


 

 
 e|-------------------------------------------------------------------|
 b|---------------------------15-----------12----------------10----10-|
 g|----9------12------14---12-----12-----9-----12--9---9--11----11----|
 d|--9-----10------12----------------9---------------9----------------|
 a|-------------------------------------------------------------------|
 e|-------------------------------------------------------------------|

 


 


 Guitar 1


 

 
 e|------------------------10--------------------------------|
 b|-------10-12---------10-----------------------------------|
 g|-9--12--------9~--12-------12b13r12-11-9--7---------------|
 d|---------------------------------------------10-9--7-9----|
 a|----------------------------------------------------------|
 e|----------------------------------------------------------|

 


 


 Guitar 2


 

 
 e|-------------------------------------------------------------------|
 b|---------------------------15-----------12-------------------------|
 g|----9------12------14---12-----12-----9-----12----------12---------|
 d|--9-----10------12----------------9-------------12---9------7--9---|
 a|-------------------------------------------------------------------|
 e|-------------------------------------------------------------------|

 


 


 Guitar 1


 

 
 e|------------------------10---------------------------------|
 b|-------10-12---------10------------------------------------|
 g|-9--12--------9~--12-------12b13r12-11-9--7--11/12--11--7~-|
 d|-----------------------------------------------------------|
 a|-----------------------------------------------------------|
 e|-----------------------------------------------------------|

 


 


 Guitar 2


 

 
 e|-------------------------------------------------------------------|
 b|---------------------------15-----------12----------------10----10-|
 g|----9------12------14---12-----12-----9-----12--9---9--11----11----|
 d|--9-----10------12----------------9---------------9----------------|
 a|-------------------------------------------------------------------|
 e|-------------------------------------------------------------------|

 


 


 


 ( First Solo )


 

 
 e|--------------------------------------------------------------------|
 b|--15bfull~--17-15--------------------15~--13-12-10----10-12--12brb~-|
 g|------------------17-16-17-14--16-17---------------12---------------|
 d|--------------------------------------------------------------------|
 a|--------------------------------------------------------------------|
 e|--------------------------------------------------------------------|
 e|-------------------------------------------------------------------|
 b|--10----10---------------------------------------------------------|
 g|-----12----12h13p12p11-12-11-9-11-12-11bhalf~--9----9~-------------|
 d|-------------------------------------------------12----------------|
 a|-------------------------------------------------------------------|
 e|-------------------------------------------------------------------|
 e|--17~--/19-15-----------------------------------------------------------|
 b|---------------18bhalfr18-17-15-17-18-17-/19~--/18p16--13---------------|
 g|----------------------------------------------------------12-14b15r14~--|
 d|------------------------------------------------------------------------|
 a|------------------------------------------------------------------------|
 e|------------------------------------------------------------------------|
 e|----------------20-21-22-23-/24~---16bhalf~---------------------------------|
 b|---------------------------------------------17-15--------------------------|
 g|-11-9-11-9-----------------------------------------15-14--------------------|
 d|-----------13~-------------------------------------------17-14-12-----------|
 a|------------------------------------------------------------------14-13-10~-|
 e|----------------------------------------------------------------------------|
 e|---------------------7-10-6h8p6---------------------------------------/12~~-|
 b|---------8-10bfull-8------------8-10~--8---8-10--10bhalf-10bhalf-10-8-------|
 g|-------9---------------------------------9----------------------------------|
 d|-----9----------------------------------------------------------------------|
 a|-/10------------------------------------------------------------------------|
 e|----------------------------------------------------------------------------|
 e|--12-10-------------12-10------------------------------------------|
 b|--------12-10h12~---------12-10bhalf~--8---------------------------|
 g|-----------------------------------------9-------------------------|
 d|-------------------------------------------9-7-9-*7~---------------|
 a|-------------------------------------------------------------------|
 e|-------------------------------------------------------------------|
 e|-----------/18bfull~-18full~-18b19r18~---------22-24-22-21-20------------------------|
 b|---------------------------------------/16px------------------24-23-22--20-----------|
 g|--/9~---9------------------------------------------------------------------24-23-22--|
 d|------9------------------------------------------------------------------------------|
 a|-------------------------------------------------------------------------------------|
 e|-------------------------------------------------------------------------------------|
 e|-------------------------------------------------------------------|
 b|-------------------------18bfull~--18bfull~-17~~-------------------|
 g|-21-19-21---18bhalf~-p16-------------------------------------------|
 d|-------------------------------------------------------------------|
 a|-------------------------------------------------------------------|
 e|-------------------------------------------------------------------|

 


 (End of 1st solo)


 


 


 VERSE


 


 

 
 e|-------------------------------------------------------------------|
 b|-------------------------------------------------------------------|
 g|--9b10r9~-7~--5----------------------------------------------------|
 d|----------------9-7--7-9~--9-9h10p9p7--7h9~------------------------|
 a|-------------------------------------------------------------------|
 e|-------------------------------------------------------------------|
 e|-------------------------------------------------------------------|
 b|-------------------------------------------------------------------|
 g|--9b10r9~-*7~--5---------------------------------------------------|
 d|-----------------9-7--5(whammy bar effect,push down repeatedly)----|
 a|-------------------------------(then pick scrape down d string)----|
 e|-------------------------------------------------------------------|

 


 


 PreChorus


 


 

 
 e|--17-17-15-17~--17-15-17-18bfull~----------------------|
 b|----------------------------------17b18r17b18r17~------|
 g|-------------------------------------------------------|
 d|-------------------------------------------------------|
 a|-------------------------------------------------------|
 e|-------------------------------------------------------|

 


 


 Rhythm


 

 
 e|------------------------------------------------------|
 b|------------------------------------------------------|
 g|-7-7-7-7-7-7-7-7-7-7-7--2-2-2-2-2-2-2-2-2-2-2-2-------|
 d|-7-7-7-7-7-7-7-7-7-7-7--2-2-2-2-2-2-2-2-2-2-2-0-------|
 a|-5-5-5-5-5-5-5-5-5-5-5--0-0-0-0-0-0-0-0-0-0-0-0-------|
 e|------------------------------------------------------|
 e|--17-17-15-17~--17-15-17-18bfull~--20bfull~------------|
 b|-------------------------------------------------------|
 g|-------------------------------------------------------|
 d|-------------------------------------------------------|
 a|-------------------------------------------------------|
 e|-------------------------------------------------------|

 


 


 Rhythm


 

 
 e|------------------------------------------------------|
 b|------------------------------------------------------|
 g|-7-7-7-7-7-7-7-7-7-7-7--2-2-2-2-2-2-2-2-2-2-2-2-------|
 d|-7-7-7-7-7-7-7-7-7-7-7--2-2-2-2-2-2-2-2-2-2-2-0-------|
 a|-5-5-5-5-5-5-5-5-5-5-5--0-0-0-0-0-0-0-0-0-0-0-0-------|
 e|------------------------------------------------------|

 


 


 CHORUS


 


 Guitar 2


 

 
 e|-------------------------------------------------------------------|
 b|---------------------------15-----------12-------------------------|
 g|----9------12------14---12-----12-----9-----12----------12---------|
 d|--9-----10------12----------------9-------------12---9------7--9---|
 a|-------------------------------------------------------------------|
 e|-------------------------------------------------------------------|

 


 


 Guitar 2


 

 
 e|-------------------------------------------------------------------|
 b|---------------------------15-----------12----------------10----10-|
 g|----9------12------14---12-----12-----9-----12--9---9--11----11----|
 d|--9-----10------12----------------9---------------9----------------|
 a|-------------------------------------------------------------------|
 e|-------------------------------------------------------------------|

 


 


 (Now Guitar 1 joins in)


 Guitar 1


 

 
 e|------------------------10--------------------------------|
 b|-------10-12---------10-----------------------------------|
 g|-9--12--------9~--12-------12b13r12-11-9--7---------------|
 d|---------------------------------------------10-9--7-9----|
 a|----------------------------------------------------------|
 e|----------------------------------------------------------|

 


 


 Guitar 2


 

 
 e|-------------------------------------------------------------------|
 b|---------------------------15-----------12-------------------------|
 g|----9------12------14---12-----12-----9-----12----------12---------|
 d|--9-----10------12----------------9-------------12---9------7--9---|
 a|-------------------------------------------------------------------|
 e|-------------------------------------------------------------------|

 


 


 Guitar 1


 

 
 e|------------------------10---------------------------------|
 b|-------10-12---------10------------------------------------|
 g|-9--12--------9~--12-------12b13r12-11-9--7--11/12--11--7~-|
 d|-----------------------------------------------------------|
 a|-----------------------------------------------------------|
 e|-----------------------------------------------------------|

 


 


 Guitar 2


 

 
 e|-------------------------------------------------------------------|
 b|---------------------------15-----------12----------------10----10-|
 g|----9------12------14---12-----12-----9-----12--9---9--11----11----|
 d|--9-----10------12----------------9---------------9----------------|
 a|-------------------------------------------------------------------|
 e|-------------------------------------------------------------------|

 


 


 Guitar 1


 

 
 e|------------------------10--------------------------------|
 b|-------10-12---------10-----------------------------------|
 g|-9--12--------9~--12-------12b13r12-11-9--7---------------|
 d|---------------------------------------------10-9--7-9----|
 a|----------------------------------------------------------|
 e|----------------------------------------------------------|

 


 


 Guitar 2


 

 
 e|-------------------------------------------------------------------|
 b|---------------------------15-----------12-------------------------|
 g|----9------12------14---12-----12-----9-----12----------12---------|
 d|--9-----10------12----------------9-------------12---9------7--9---|
 a|-------------------------------------------------------------------|
 e|-------------------------------------------------------------------|

 


 


 Guitar 3


 

 
 e|---------------------------------------------------------------------------------------|
 b|---------------------------------------------------------------------------------------|
 g|---------12121212---------12b13r12~-------------------------------------12-12-12bhalf~-|
 d|---0-*12-----------0-*12----------------------------------------9-11-12----------------|
 a|----------------------------------------------------x-x-9-11-12------------------------|
 e|---------------------------------------------------------------------------------------|

 


 [+] [+]  


 Guitar 1


 

 
 e|------------------------10---------------------------------|
 b|-------10-12---------10------------------------------------|
 g|-9--12--------9~--12-------12b13r12-11-9--7--11/12--11--7~-|
 d|-----------------------------------------------------------|
 a|-----------------------------------------------------------|
 e|-----------------------------------------------------------|

 


 


 Guitar 2


 

 
 e|-------------------------------------------------------------------|
 b|---------------------------15-----------12----------------10----10-|
 g|----9------12------14---12-----12-----9-----12--9---9--11----11----|
 d|--9-----10------12----------------9---------------9----------------|
 a|-------------------------------------------------------------------|
 e|-------------------------------------------------------------------|

 


 


 Guitar 3


 

 
 e|----------/9-------------------------------------------------|
 b|---9b10r9----11b12-------------------------------------------|
 g|-------------------------------------------------------------|
 d|-------------------------------------------------------------|
 a|-------------------------------------------------------------|
 e|-------------------------------------------------------------|

 


 


 ( 2nd Solo (with chorus playing behind it) )


 


 

 
 e|--------------11-11bfull-11-11bfull-11bhalf~--12-10----10-12bhalf~-----|
 b|--------10-12---------------------------------------12-----------------|
 g|--11-12----------------------------------------------------------------|
 d|-----------------------------------------------------------------------|
 a|-----------------------------------------------------------------------|
 e|-----------------------------------------------------------------------|
 e|--12bhalf-12-10-12--12bhalf-12-10-12--12-10----10-------12-10----10-------|
 b|--------------------------------------------12-12bhalf~-------12-12bhalf~-|
 g|--------------------------------------------------------------------------|
 d|--------------------------------------------------------------------------|
 a|--------------------------------------------------------------------------|
 e|--------------------------------------------------------------------------|

 


 (need help with the below bar. scrambled part, cant hear it)


 

 
 e|--12-10----10-12-/16~--12-10----12-10-----------------------------------------|
 b|-----------------------------12--------(scrambled up part)--------------------|
 g|------------------------------------------------------------------------------|
 d|-----------------------------------------------------------12-11-9-11-9-7-9~--|
 a|------------------------------------------------------------------------------|
 e|------------------------------------------------------------------------------|
 e|-----------------17-18-17b19~-b19~-17b19r15-17-/20-15-----------------------|
 b|-------------------------------------------------------18bhalfr18-17--15----|
 g|--------9-12-14-------------------------------------------------------------|
 d|-9-12-14--------------------------------------------------------------------|
 a|----------------------------------------------------------------------------|
 e|----------------------------------------------------------------------------|


Important: The song above is NOT stored on the Chordie server. The original song is hosted at www.guitaretab.com. Chordie works as a search engine and provides on-the-fly formatting. Chordie does not index songs against artists'/composers' will. To remove this song please click here.

This song is displayed as text-only. Transposing and tuning is only available for chordpro-songs.
Rate #1 of 3 versions

Jango Player

Login - add to songbook

SHARE PAGE  




You need to log in to post comments