Guitar Tabs, Chords and Lyrics
Server problems seems to be fixed. Chordie has been experiencing problems with songs disappearing. These issues now seems to be fixed, but still verifying the fix. If you find anything strange, please email admin@chordie.com.


Diddle-Y-A-Doo-Dat  Joe Satriani

Diddle-y-a-doo-dat
S S S S E E Q
 
 E||---15------------------------|
 B||------18p-15-----------------|
 G||*------------17-15--17-------|
 D||*----------------------------|
 A||-----------------------------|
 E||-----------------------------| 

S S S S E E Q
 
 --13------------------------|
 -----15p-13-----------------|
 ------------15-12--12-------|
 ----------------------------|
 ----------------------------|
 ----------------------------|

S S S S E E Q
 
 --15------------------------|
 -----18p-15-----------------|
 ------------17-15--17-------|
 ----------------------------|
 ----------------------------|
 ----------------------------|

S S S S E E Q
 
 --13-------------------------|| x2
 -----15p-13------------------||
 ------------15-12--12-------*||
 ----------------------------*||
 -----------------------------||
 -----------------------------||

S S S S E E Q
 
 --10------------------------|
 -----13p-10-----------------|
 ------------12-10-----------|
 -------------------12-------|
 ----------------------------|
 ----------------------------|

S S S S E E Q
 
 --11------------------------|
 -----14p-11-----------------|
 ------------13-11-----------|
 -------------------13-------|
 ----------------------------|
 ----------------------------|

S S S S E E Q S S S S E E Q
 
 --10------------------------|--8----------------------|
 -----13p-10-----------------|----11p-8----------------|
 ------------12-10-----------|----------10-8-----------|
 -------------------12-------|----------------10-------|
 ----------------------------|-------------------------|
 ----------------------------|-------------------------|

S S S S E E Q S S S S E E Q
 
 |---6-------------------|--3-------------------|
 |-----8p-6--------------|----6p-3--------------|
 |*---------7-6--5-------|---------5-3----------|
 |*----------------------|--------------5-------|
 |-----------------------|----------------------|
 |-----------------------|----------------------|

S S S S E E Q S S S S E E Q
 
 ----------------------|------------------------|| x2
 ----------------------|------------------------||
 --3-------------------|-----------------------*||
 ----5p-3--------------|-----------------------*||
 ---------5-4--3-------|--3h-4p-3---------------||
 ----------------------|----------6-1--3--------||

[E] [E] [E] [E] [E] [E] [E] [E] [E] [E] [E] [E] [B]  
 
 --------------------------|-----------------------|
 --------------------------|--------9--------------|
 -----------------------8--|-----7-----------------|
 --------------7-----6-----|-----------------------|
 -----6-----5--------------|-----------------------|
 --4-----------------------|-----------------------|
 -----------|-----------|-----------|-----------|
 -----------|-----------|-----------|-----------|
 -----------|-----------|-----------|-----------|
 -----------|-----------|-----------|-----------|
 -----------|-----------|-----------|-----------|
 -----------|-----------|-----------|-----------|

|-3|
E E E E S S E. E E
 
 ------------------------------|
 ------------------------------|
 --5b-----5--3--5---3~---------|
 ------------------------------|
 ------------------------------|
 ------------------------------|

|-3-| |-3-|
E S E E S S S Q Q
 
 ----------------------------------|
 ----------------------------------|
 ---------------------3~-----------|
 --5p--3h-5--5p--3h-5--------------|
 ----------------------------------|
 ----------------------------------|

|-3|
E E E E S S E. E E
 
 ------------------------------|
 ------------------------------|
 --5b-----5--3--5---3~---------|
 ------------------------------|
 ------------------------------|
 ------------------------------|
 |-3-| |-3-| |-3-| |-3| 

E S E S E S E S H
 
 ------------------------------------|
 ------------------------------------|
 ------------------------------------|
 --5p--3h-5p--3h-5p--3-5--5----------|
 ------------------------------------|
 ------------------------------------|

|-3|
E E E E S S E. E E
 
 ---------------------------------|
 --6b--6b--6b-----6b--------------|
 --------------7-------7~---------|
 ---------------------------------|
 ---------------------------------|
 ---------------------------------|

SH
|-3| |-3|
E E E S E S Q E. S
 
 ----------------------------------|
 -----6g7--7-------7~------------|
 ---------------7----------------7-|
 ----------------------------------|
 ----------------------------------|
 ----------------------------------|

|-3|
E. S E E S E. S E. S
 
 ------------------------8-----|
 --8-----10-------11-----------|
 ------7--------7------7-----7-|
 ------------------------------|
 ------------------------------|
 ------------------------------|

|-3-|
H E E S E E
 
 --8g10~----------s/22--------------|
 -----------------------------------|
 -----------------------------------|
 -----------------------------------|
 -----------------------------------|
 -----------------------22s--x\-----|

|-3|
E E E E S S E. E E
 
 -----------------------------------|
 -----------------------------------|
 -----5br---h--3--5b---3~---------|
 -----------------------------------|
 -----------------------------------|
 -----------------------------------|
 |-3-| |-3-| |-3-| 

E S E S E S E Q Q
 
 ------------------------------------|
 ------------------------------------|
 ------------------------------------|
 --5p--3h-5p--3-5p--3-5b~------------|
 ------------------------------------|
 ------------------------------------|

|-3| |-3-|
E E E E S S E. E E S
 
 -------------------------------------|
 -------------------------------------|
 -----5pbr---h--3--5b---3~------------|
 -------------------------------5p--3-|
 -------------------------------------|
 -------------------------------------|
 |-3-| |----| 

E S E E S E S E. Q
 
 ----------------------------------|
 ----------------------------------|
 ----------------------------------|
 --5p--3-5--5----------------------|
 --------------4s-3--1-----------|
 ------------------------3~--------|

|-3|
E E E E S S E. E E
 
 --------------------------------|
 -----6b--6b-----6b--------------|
 -------------7-------7~---------|
 --------------------------------|
 --------------------------------|
 --------------------------------|

|-3|
E E E E S Q E. S
 
 ----------------------------|
 --7--7--7-----7~------------|
 -----------7--------------7-|
 ----------------------------|
 ----------------------------|
 ----------------------------|

|-3|
E. S E E S E. S E. S
 
 ------------------------8-----|
 --8-----10-------11-----------|
 ------7--------7------7-----7-|
 ------------------------------|
 ------------------------------|
 ------------------------------|

E. E. E. E. E. S
 
 --8g10~---10~---10~---10~---10~---10~-|
 --------------------------------------|
 --------------------------------------|
 --------------------------------------|
 --------------------------------------|
 --------------------------------------|

|-3| |-3| |-3|
H E S E S E E S
 
 --------------9br----8br----------|
 ----------------------------11--8-|
 ----------------------------------|
 ----------------------------------|
 ----------------------------------|
 ----------------------------------|
 |-3| |-3| |--3-| |-3-| |--3--| 

E S E S E. E. E S E S S S S
 
 -----------------------------------------------|
 --11--8-----8~-----8~-----------------------13-|
 --------10----------------------------12-15----|
 ------------------------10s--15----15----------|
 -----------------------------------------------|
 -----------------------------------------------|

|-3-| |-3-|
Q. E S Q E E S
 
 --12~----------12b------12---------|
 -----------15------------------15~-|
 -----------------------------------|
 -----------------------------------|
 -----------------------------------|
 -----------------------------------|
 |--3-| |-3-| |--3--| 

Q. E S Q E S S S S
 
 --------------------------------------|
 ---------13b-----------------------13-|
 --------------15~------------12-15----|
 --------------------------15----------|
 --------------------------------------|
 --------------------------------------|

|-3-| |-3-|
Q. E S Q E E S
 
 --12~----------12b------12---------|
 -----------15------------------15~-|
 -----------------------------------|
 -----------------------------------|
 -----------------------------------|
 -----------------------------------|
 |-3-| |--3--| 

Q E. S Q E S S S S
 
 -----------------------------------|
 -----------20~------------------12-|
 --------------------------12-15----|
 -----------------------15----------|
 -----------------------------------|
 -----------------------------------|

|-3-| |-3-|
Q. E S Q E E S
 
 --12~----------12b------12---------|
 -----------15------------------15~-|
 -----------------------------------|
 -----------------------------------|
 -----------------------------------|
 -----------------------------------|

|--3-|
Q. E S Q E E
 
 -------------------------------|
 ---------13b-------------------|
 --------------15~--------------|
 -----------------------12\-----|
 -------------------------------|
 -------------------------------|

E. E. E. E. E E
 
 ---------------------------------|
 ---------------------------------|
 -------------------------10--12--|
 --------8~---10~---12~-----------|
 --10~----------------------------|
 ---------------------------------|

E. E. E. E. E E
 
 ------------------------------15--|
 --------------------15~---18------|
 --------15~---17~-----------------|
 --17~-----------------------------|
 ----------------------------------|
 ----------------------------------|

E. E. E. S E E E
 
 --------------------15----20b--18b--|
 --------15~---18~-------------------|
 --17~-------------------------------|
 ------------------------------------|
 ------------------------------------|
 ------------------------------------|

E Q. Q Q
 
 -----18~-------------------|
 ---------------------------|
 ---------------------------|
 ---------------------------|
 ---------------------------|
 --------------/22\---------|

|-3| |-3| |-3| |-3-|
E S E S E S E S Q. E
 
 -----8----8----------------------|
 --8--8----8-------------------8--|
 --8--8----8----x-8--10-----------|
 ---------------x-8---8-----------|
 ---------------------------------|
 ---------------------------------|
 |-3-| |-3-| |-3| |-3| |-3| |-3-| |-3-| 

E S E S E S E S E E S E S E S
 
 --10--10----10----x-8--8----8--8--------8------|
 ------------------x-8--8-------8------8----11h-|
 --10--10----10----x-8--8---------10b-----------|
 -----------------------------------------------|
 -----------------------------------------------|
 -----------------------------------------------|
 |-----| |-3| |-3-| |--3-| |-3-| |-3-| |--3--

E S E S E S E S E S E S E S S
 
 --------------8-----------------------------------------
 --8--------8----8--11-----------------------------------
 -----10b------------10b--10p-8----------8h-10~--8h-10-
 ----------------------------------10-10~----------------
 --------------------------------------------------------
 --------------------------------------------------------
 |--3--| |--3-| |--3--| |--3-| |-3-| |-3| 

S S S S S S S S S S S S S S S E S E. S
 
 -------------------------------------------------------|
 -------------------------------------------------------|
 --10p-8----10----8-------------------------------------|
 --------10----10---10p-8-------------------------------|
 -------------------------10-8s-6---8---6b-----------6\-|
 ---------------------------------8---8-------8-8~------|
 |-3| |-3| |-3-| |-3-| |-3-| |-3| |-3-| |-3-| 

E S E S E S E S E S E S E S E S
 
 -----------------------------------------------------|
 -----------------------------------------------------|
 -------------8s-7-----7--10p-8p--7-----7-------7s--8-|
 -------8-10--------10--------------10----9--10-------|
 --/10------------------------------------------------|
 -----------------------------------------------------|
 |--3--| |-3-| |-3-| |-3-| |-3-| |---3--| |-3| |-3-|

S S S S S S E S E S E S S T T T E S E S
 
 ---------------8-10--11----10----10---8h-10p-8s-7--8----11-|
 -------------8---------------------------------------------|
 --10p-8----8-----------------------------------------------|
 --------10-------------------------------------------------|
 -----------------------------------------------------------|
 -----------------------------------------------------------|
 |-3| |--3-| |-3| |-3-| |-3| 

E S S S S E S E S E S E S E S
 
 -----8-------------8-8------8----11g13b----12b----|
 -------11-8--------8----11b----8------------------|
 ------------10b-----------------------------------|
 --------------------------------------------------|
 --------------------------------------------------|
 --------------------------------------------------|
 |-3-| |-3| |-3| |-3| |-3| 

E E S E S E S Q E S E S
 
 --11~------------------------------------------|
 -------13--11----------------------------------|
 --------------12g10--8-------8~----10--8-----8-|
 -----------------------10--8-------------10----|
 -----------------------------------------------|
 -----------------------------------------------|
 |-3-| |-3| |-3-| |-3| 

S E. E S E S S E. E S E S
 
 --------------------------------------------------------|
 --------11-------------------------11-------------------|
 --10g12------12g10p--8-----8-10g12------12g10p--8-----8-|
 -----------------------10-------------------------10----|
 --------------------------------------------------------|
 --------------------------------------------------------|
 |-3-| |-3-| |------| |--3-| 

E S E S E S E E. S E S E
 
 ---------8------8--------------------------------|
 -------8----11b----11g13b--------x---------------|
 --10b-----------------------------------10s-12b--|
 -----------------------------------13\-----------|
 -------------------------------------------------|
 -------------------------------------------------|
 |--3-| |-3-| |-3-| |-3-| |-3-| |-3-|

S S S E E S E S E S E S S T T E S
 
 --------------------13--15-18--13-15-----13-14p-13-----13-|
 -------8-11--13--16-------------------16-----------16-----|
 --8-10----------------------------------------------------|
 ----------------------------------------------------------|
 ----------------------------------------------------------|
 ----------------------------------------------------------|
 |-3-| |-3-| |-3-| |-3| |-3-| |-3-| |--3-|

E S E E S E S E S E S E S E S
 
 ---------------------------------18----------------------|
 --16--13-----16-----13--13~----------18pbr----16---------|
 ---------15------15------------------------------17b--15-|
 ---------------------------------------------------------|
 ---------------------------------------------------------|
 ---------------------------------------------------------|
 |-3-| |-3-| |-3-| |------| |-3| |-3| |-3| |-3| 

E S E S E S E S E S E S E S E S
 
 -------------------------------------------------------|
 -------------------------------------------------------|
 -------------------------------------------------------|
 --17--15s-13-----15-----13-------------8---------10----|
 --------------15-----15-----15g10----0----9----0-----8-|
 -------------------------------------------------------|
 |-3| |-3| |-3-| |-3| |-3| |-3| |-3| 

E E S E S E S E S E S E S E S
 
 --------------------------------------------|
 --------------------------------------------|
 --------------------------------------------|
 --------------------------------------------|
 -----6--8p-6--------------6-8--8~----6-8--6-|
 --------------8p-6p--0-8--------------------|
 |-3| |-3| |-3-| |--3-| |-3-| |-3-| |--3-| |-3-| 

E S E S E S S S S E S E S S S S E S
 
 -----------------------------------------------------|
 -----------------------------------------------8--11-|
 ----------------------------------------8-9-10-------|
 --------8-------------------8--10----10--------------|
 --8g10----9--8-------8-9-10--------------------------|
 ------------------11---------------------------------|
 |-3-| |-3-| |-3-| |-3-| |------| 

E S S S S E E S E S E S S E
 
 -----------8---11g13--11--13-13g15--13-15--15g18---18g20
 -----11b-----8------------------------------------------
 --------------------------------------------------------
 --------------------------------------------------------
 --------------------------------------------------------
 --------------------------------------------------------

|-3|
E E E E S S E. E E
 
 ------------------------------|
 ------------------------------|
 --5b-----5--3--5---3~---------|
 ------------------------------|
 ------------------------------|
 ------------------------------|
 |-3-| |-3-| |-3| |-3| 

E S E S E S E S E E Q
 
 -------------------------------------|
 -------------------------------------|
 -----------------------3~------------|
 --5p--3h-5p--3-5--3-5----------------|
 -------------------------------------|
 -------------------------------------|

SH
|-3| |-3-|
E E E E S S E. E E S
 
 -----------------------------------|
 -----------------------------------|
 --5b-----5--3--5---3~------------|
 -----------------------------5p--3-|
 -----------------------------------|
 -----------------------------------|

|-3| |-3| |-3|
E S E E E S E S E Q
 
 ---------------------------------|
 ---------------------------------|
 ---------------------------------|
 --5--5----5-----5----5---------|
 ---------------------------------|
 ---------------3----3------------|

|-3| |-3|
E E E E S S E. E E S
 
 -----------------------------------|
 --6b--6b--6b-----6b----------------|
 --------------7-------7~---------7-|
 -----------------------------------|
 -----------------------------------|
 -----------------------------------|

|-3| |-3|
E E E S E S Q E. S
 
 ------------------------------|
 --7--7--7-------7~------------|
 -----------7----------------7-|
 ------------------------------|
 ------------------------------|
 ------------------------------|

[-/1]E. S [-/1]E. S [-/1]E. S [-/1]E. S
 
 ----------------------8-----|
 --8-----10-----11-----------|
 ------7------7------7-----7-|
 ----------------------------|
 ----------------------------|
 ----------------------------|

|-3-|
H E E S E E
 
 --8g10~----------s/22--------------|
 -----------------------------------|
 -----------------------------------|
 -----------------------------------|
 -----------------------------------|
 -----------------------22s--x\-----|

|-3|
Q. E S S E. E. S
 
 --------------------------------|
 --------------------------------|
 --5br------3--5b---3~---------|
 ------------------------------0-|
 --------------------------------|
 --------------------------------|

[/2]  
 
 |-3-| |-3-| |-3-| 

E S E S E S Q. Q
 
 --------------------------------|
 --------------------------------|
 --------------------------------|
 --5p--3-5p--3-5p--3-5-----------|
 --------------------------------|
 --------------------------------|

|-3| |-3-|
S E. E E S S E. E S E
 
 -------------------------------------|
 -------------------------------------|
 ----5pbr----h--3--5b---3~------------|
 ----------------------------5p--3-5--|
 -------------------------------------|
 -------------------------------------|

|-3-| |-3|
E E E S E S H
 
 ----------------------------|
 ----------------------------|
 --3--3----------------------|
 --------5p--3-5--5----------|
 ----------------------------|
 ----------------------------|

|-3| |-3|
E S E E E S S Q. S
 
 ---------------------------------|
 -------6b--6b-----6b-------------|
 -----7---------7-------7~------7-|
 ---------------------------------|
 ---------------------------------|
 ---------------------------------|

|-3| |-3|
E E E S E S Q E. S
 
 -----------------------------|
 --7--7--7-------7------------|
 -----------7---------------7-|
 -----------------------------|
 -----------------------------|
 -----------------------------|
 |-3| |-3| |-3-| |-3| |-3-| |-3| |-3| |-3| 

E S E S E S E S E S E S E S E S
 
 --------------------------------------8--8-8----|
 --8--8-8----10--10-10----11--11-11--------------|
 ----------7------------7------------7---------7-|
 ------------------------------------------------|
 ------------------------------------------------|
 ------------------------------------------------|
 |-3-| |-3-| |-3-| |-3-| |-3-| |-

E E S E S E S E S E S S T T E
 
 --8g10--10--10-10--10-10--10-10--10-10--10-10-13p-10p-9-
 --------------------------------------------------------
 --------------------------------------------------------
 --------------------------------------------------------
 --------------------------------------------------------
 --------------------------------------------------------

S S T T S S T T S S T T S S T T S
 
 --10-10-13p-10p-9-10-13p-10p-9-10-13p-10p-9-10-13p-10p-9
 --------------------------------------------------------
 --------------------------------------------------------
 --------------------------------------------------------
 --------------------------------------------------------
 --------------------------------------------------------

|--3--|
S T T S S T T S S E. E. S S S S
 
 --10-13p-10p-9-10-13p-10p-9-10-13g15---15---------------
 -----------------------------------------------------13-
 -----------------------------------------------12-15----
 --------------------------------------------15----------
 --------------------------------------------------------
 --------------------------------------------------------

Q. S S Q E S S
 
 --12~---------12b------12--------|
 -----------15----------------15~-|
 ---------------------------------|
 ---------------------------------|
 ---------------------------------|
 ---------------------------------|

|--3--|
Q. S Q. S S S S
 
 ---------------------------------|
 --L------13b------------------13-|
 -------------15---------12-15----|
 ---------------------15----------|
 ---------------------------------|
 ---------------------------------|

Q. S S Q E S S
 
 --12~---------12b------12--------|
 -----------15----------------15~-|
 ---------------------------------|
 ---------------------------------|
 ---------------------------------|
 ---------------------------------|

|--3--|
Q. S Q. S S S S
 
 --------------------------------|
 -----------18b---------------13-|
 -----------------------12-15----|
 --------------------15----------|
 --------------------------------|
 --------------------------------|

Q. S S Q E S S
 
 --12~---------12b------12--------|
 -----------15----------------15~-|
 ---------------------------------|
 ---------------------------------|
 ---------------------------------|
 ---------------------------------|

Q E S S Q E. S
 
 ----------------------------18b-|
 -------13b----------------------|
 --------------15~------15-------|
 --------------------------------|
 --------------------------------|
 --------------------------------|

Q E S S Q S S S S
 
 -------18b----15~------15----15-18b-|
 --------------------------15--------|
 ------------------------------------|
 ------------------------------------|
 ------------------------------------|
 ------------------------------------|

Q E S S Q S S S S
 
 -------18b----15~------15----15-18b-|
 --------------------------15--------|
 ------------------------------------|
 ------------------------------------|
 ------------------------------------|
 ------------------------------------|

Q E S S Q S S S S
 
 -------18b----15~------15----15-18-|
 --------------------------15-------|
 -----------------------------------|
 -----------------------------------|
 -----------------------------------|
 -----------------------------------|

Q E. S Q Q
 
 --15~----15~---15--\---------|
 -----------------------------|
 -----------------------------|
 -----------------------------|
 -----------------------------|
 -----------------------------|

S S S S E E Q
 
 |---15------------------------|
 |------18p-15-----------------|
 |*------------17-15--17-------|
 |*----------------------------|
 |-----------------------------|
 |-----------------------------|

S S S S E E Q
 
 --13------------------------|
 -----15p-13-----------------|
 ------------15-12--12-------|
 ----------------------------|
 ----------------------------|
 ----------------------------|

S S S S E E Q
 
 --15------------------------|
 -----18p-15-----------------|
 ------------17-15--17-------|
 ----------------------------|
 ----------------------------|
 ----------------------------|

S S S S E E Q
 
 --13-------------------------||
 -----15p-13------------------||
 ------------15-12--12-------*||
 ----------------------------*||
 -----------------------------||
 -----------------------------||

S S S S E E Q
 
 --10------------------------|
 -----13p-10-----------------|
 ------------12-10-----------|
 -------------------12-------|
 ----------------------------|
 ----------------------------|

S S S S E E Q
 
 --11------------------------|
 -----14p-11-----------------|
 ------------13-11-----------|
 -------------------13-------|
 ----------------------------|
 ----------------------------|

S S S S E E Q S S S S E E Q
 
 --10------------------------|--8----------------------|
 -----13p-10-----------------|----11p-8----------------|
 ------------12-10-----------|----------10-8-----------|
 -------------------12-------|----------------10-------|
 ----------------------------|-------------------------|
 ----------------------------|-------------------------|

S S S S E E Q S S S S E E Q
 
 |---6-------------------|--3-------------------|
 |-----8p-6--------------|----6p-3--------------|
 |*---------7-6--5-------|---------5-3----------|
 |*----------------------|--------------5-------|
 |-----------------------|----------------------|
 |-----------------------|----------------------|

S S S S E E Q S S S S E E Q
 
 ----------------------|------------------------||
 ----------------------|------------------------||
 --3-------------------|-----------------------*||
 ----5p-3--------------|-----------------------*||
 ---------5-4--3-------|--3h-4p-3---------------||
 ----------------------|----------6-1--3--------||

[E] [E] [E] [E] [E] [E] [E] [E] [E] [E] [E] [E] [B]  
 
 --------------------------|-----------------------|
 --------------------------|--------9--------------|
 -----------------------8--|-----7-----------------|
 --------------7-----6-----|-----------------------|
 -----6-----5--------------|-----------------------|
 --4-----------------------|-----------------------|

E E E E Q Q W
 
 ------------------------|-------------------||
 --3--------3-------3----|-------------------||
 --3--------3-------3----|-------------------||
 --3--------3-------3----|-------------------||
 --x--------x-------x----|-------------------||
 --3--------3-------3----|-------------------||

Duration Legend
 
 ---------------

W - whole
H - half
Q - quarter
E - 8th
S - 16th
T - 32nd
X - 64th
. - note dotted
|-3-| - triplet
Tablature Legend
 
 ----------------

x - dead note
g - grace note
(n) - ghost note
> - accentuded note
NH - natural harmonic
AH - artificial harmonic
TH - tapped harmonic
SH - semi harmonic
PH - pitch harmonic
h - hammer on
p - pull off
b - bend
br - bendRelease
pb - preBend
pbr - preBendRelease
brb - bendReleaseBend
\n/ - tremolo bar dip
\n - tremolo bar dive
-/n - tremolo bar Release up
/n\ - tremolo bar inverted dip
/n - tremolo bar return
-\n - tremolo bar Release down
S - shift slide
s - legato slide
/ - slide into from below or out of upwards
\ - slide into from above or out of downwards
~ - vibrato
W - wide vibrato
tr - trill
TP - tremolo picking
T - tapping
S - slap
P - pop
< - fade in
^ - brush up
v - brush down

Important: The song above is NOT stored on the Chordie server. The original song is hosted at www.guitaretab.com. Chordie works as a search engine and provides on-the-fly formatting. Chordie does not index songs against artists'/composers' will. To remove this song please click here.

Text color:
Chord color:
Chord grids: 
Font size:    
Page size: 

B E
Rate #1 of 1 versions

Login - add to songbook

SHARE PAGE  



You need to log in to post comments