Guitar Tabs, Chords and Lyrics
Server problems seems to be fixed. Chordie has been experiencing problems with songs disappearing. These issues now seems to be fixed, but still verifying the fix. If you find anything strange, please email admin@chordie.com.


Love Thing  Joe Satriani

As recorded by Joe Satriani
(From the 1998 Album CRYSTAL PLANET)
Transcribed by Andrew Marsh
Words by (none) Music by Joe Satriani
Gtr I (E A D G B E) - 'Clean Guitar'
Gtr II (E A D G B E) - 'Keyboard 1'
Gtr III (E A D G B E) - 'Keyboard 2'
Intro
Slowly Q=88
[Bsus4/B/E] [Amaj7/EEadd9] [Bsus4/E] [B/E] [Amaj7/EG#m7] 
[4/4] Gtr I
H.. E E E E E Q E E H.. E E E E E Q E E
 
 |-----------2-|-2-2---4-4----2-|-2-----------------------2--|-2-2---4-4----2--|
 |-----------5-|-5-4---2-2----0-|-0-----------------------5--|-5-4---2-2----0--|
 |-----------4-|-4-4---2-2----1-|-1-----------------------4--|-4-4---2-2----1--|
 |-----------2-|-2-2---2-2----2-|-2-----------------------2--|-2-2---2-2-------|
 |-------------|----------------|----------------------------|-----------------|
 |-------------|----------------|----------------------------|-----------------|

|
| Gtr II
| W W Q E +E +E +E +E +E Q Q Q Q
 
 |-------------|----------------|----------------------------|-----------------|
 |-------------|----------------|----------------------------|-----------------|
 |-------------|----------------|------4-(4)-(4)-(4)-(4)-(4)-|-4---------------|
 |-------------|----------------|----------------------------|---------2-------|
 |-------------|----------------|----------------------------|-----------------|
 |-------------|----------------|----------------------------|-----------------|

H.. [Bsus4/E]E E [B/E]E E [Amaj7/E]E Q E [Eadd9]E
 
 |--2----------------------2-|---2---2-----4---4----------2-|
 |--0----------------------5-|---5---4-----2---2----------0-|
 |--1----------------------4-|---4---4-----2---2----------1-|
 |-------------------------2-|---2---2-----2---2----------2-|
 |---------------------------|------------------------------|
 |---------------------------|------------------------------|

|
| Q +Q +Q Q +Q Q +Q +Q
 
 |---------------------------|------------------------------|
 |-[5]---([5])--([5])--[4]---|-([4])------------------------|
 |---------------------------|---------[4]---([4])--([4])---|
 |---------------------------|------------------------------|
 |---------------------------|------------------------------|
 |---------------------------|------------------------------|

H.. [C#m7]E +E [C#m9]Q [Aadd2]E +E Q [E]E
 
 |-2------------------0-|-(0)-0-----0-(0)-0-----0--|
 |-0------------------0-|-(0)-0-----0-(0)-0-----0--|
 |-1------------------9-|-(9)-8-----6-(6)-------1--|
 |-2------------------9-|-(9)-9-----7-(7)-------2--|
 |--------------------x-|-(x)-------0-(0)-------2--|
 |--------------------9-|-(9)-------------------0--|

|
| >
| E E +E E Q +E E +Q +Q +Q +Q
 
 |----------------------|--------------------------|
 |-----5-(5)---5--(5)---|--------------------------|
 |-----------4--------4-|-(4)---(4)---(4)---(4)----|
 |----------------------|--------------------------|
 |----------------------|--------------------------|
 |----------------------|--------------------------|

+E Q. +H +H.. [Bsus4/E]E
 
 |-(0)-0-------(0)-------|-(0)---------------2-||
 |-(0)-0-------(0)-------|-(0)---------------5-||
 |-(1)-------------------|-------------------4-||
 |-(2)-------------------|-------------------2-||
 |-(2)-------------------|---------------------||
 |-(0)-------------------|---------------------||

|
| >
| PM
| +Q +Q E E E E +Q +Q +Q Q
 
 |---------------------0-|-(0)---(0)--(0)------||
 |-------------------5---|---------------------||
 |-(4)----(4)--------4---|---------------------||
 |-----------------------|---------------------||
 |-----------------2-----|---------------------||
 |-----------------------|---------------------||

Main Theme
E [B/E]E E [Amaj7/EEadd9]E Q E E H.. [Bsus4/E]E
 
 |-2-2---4-4----2-|-2---------------2-|
 |-5-4---2-2----0-|-0---------------5-|
 |-4-4---2-2----1-|-1---------------4-|
 |-2-2---2-2----2-|-2---------------2-|
 |----------------|-------------------|
 |----------------|-------------------|

|
| Gtr III
| W E E E E E E Q
 
 |----------------|-------------------|
 |----------------|-------------------|
 |----------------|-------------------|
 |----------------|-------2s4s2-------|
 |----------------|-----2-------2-2---|
 |----------------|-------------------|

E [B/E]E E [Amaj7/EG#m7]E Q E E H.. [Bsus4/E]E
 
 |--2--2---4-4----2-|--2---------------------2--|
 |--5--4---2-2----0-|--0---------------------5--|
 |--4--4---2-2----1-|--1---------------------4--|
 |--2--2---2-2------|------------------------2--|
 |------------------|---------------------------|
 |------------------|---------------------------|

|
| +W +E E E E +E +E E E
 
 |------------------|---------------------------|
 |------------------|---------------------------|
 |------------------|---------------------------|
 |------------------|---------------------------|
 |-(2)--------------|-(2)--2s4-6-(6)b7r(6)-4-2--|
 |------------------|---------------------------|

E [B/E]E E [Amaj7/EEadd9]E Q E E H.. [C#m7]E
 
 |-2-2---4-4----2-|--2------------------0-|
 |-5-4---2-2----0-|--0------------------0-|
 |-4-4---2-2----1-|--1------------------9-|
 |-2-2---2-2----2-|--2------------------9-|
 |----------------|---------------------x-|
 |----------------|---------------------9-|

|
| W +E E E E E E E a E
 
 |----------------|-----------------------|
 |----------------|-----------------------|
 |----------------|-----------------------|
 |----------------|--------2s4s2----------|
 |-2--------------|-(2)--2-------/4s2-2S7-|
 |----------------|-----------------------|

+E [C#mAadd2]Q E +E Q [E]E +E Q E +Q. [C#m7]E
 
 |-(0)-0--0-(0)-0--0-|-(0)-0--0-(0)---0-|
 |-(0)-0--0-(0)-0--0-|-(0)-0--0-(0)---0-|
 |-(9)-8--6-(6)----1-|-(1)------------9-|
 |-(9)-9--7-(7)----2-|-(2)------------9-|
 |-(x)----0-(0)----2-|-(2)------------x-|
 |-(9)-------------0-|-(0)------------9-|

|
| +W +W
 
 |-------------------|------------------|
 |-------------------|------------------|
 |-------------------|------------------|
 |-------------------|------------------|
 |-(7)---------------|-(7)--------------|
 |-------------------|------------------|

+E [C#m9Aadd2]Q E +E Q [Eadd9]E E Q. E E Q
 
 |-(0)---0---0-(0)-0------|---2--------0---------|
 |-(0)---0---0-(0)-0------|---0--------0--0------|
 |-(9)---9---6-(6)--------|---1--------1-----1---|
 |-(9)---8---7-(7)--------|-2--------------------|
 |-(x)-------0-(0)--------|----------------------|
 |-(9)------------------0-|----------------------|

|
| +E a E E E E E E E E E +Q +Q +Q
 
 |------------------------|----------------------|
 |------------------------|----------------------|
 |------------------------|----------------------|
 |-----7s6-6-7--7s11-11s9-|-9-9--(9)--(9)---(9)--|
 |-(7)--------------------|----------------------|
 |------------------------|----------------------|

[Badd4] [C#m7]  
[E] [E] [E] [E] [+B] [E] [E] [E] [E] [+B]  
 
 |-----------0-(0)--------|-------------0-(0)-------|
 |-----------0-(0)--------|-------------0-(0)-------|
 |---------8--------------|----------9--------------|
 |-----9------------------|------11-----------------|
 |------------------------|-------------------------|
 |------------------------|-------------------------|

|
| +E E Q E E E E Q +E Q E E E
 
 |------------------------|-------------------------|
 |-------/12---12--10-9s7-|-9b10r===(9)-7-----9---5-|
 |------------------------|-------------------------|
 |-(9)--------------------|-------------------------|
 |------------------------|-------------------------|
 |------------------------|-------------------------|

[Emaj7/G#] [Aadd2]  
[E] [E] [E] [E] [+B] [E] [E] [E] [E] [+B]  
 
 |---------0-(0)----|---------0-(0)--------------------|
 |---------4-(4)----|---------0-(0)--------------------|
 |-------4----------|-------6--------------------------|
 |-----2------------|----------------------------------|
 |------------------|-----7----------------------------|
 |--4---------------|-5--------------------------------|

|
| +W H S +S S S +S S E
 
 |------------------|----------------------------------|
 |-(5)--------------|-7b9--------7b9r(7)p5-------------|
 |------------------|----------------------6b7r(6)p4---|
 |------------------|--------------------------------6-|
 |------------------|----------------------------------|
 |------------------|----------------------------------|

[Badd4] [C#m7]  
[E] [E] [E] [E] [+B] [E] [E] [E] [E] [+B]  
 
 |---------0--(0)--------|-------------0-(0)--------|
 |---------0--(0)--------|-------------0-(0)--------|
 |-------8---------------|----------9---------------|
 |---9-------------------|------11------------------|
 |-----------------------|--------------------------|
 |-----------------------|--------------------------|

|
| ~~~~~~~~~~~~~~~
| Q Q +E E E E Q +E E E E E E
 
 |-----------------------|--------------------------|
 |-----/12---(12)-10-9s7-|-9b10r===(9)-7--7s5-------|
 |-4---------------------|--------------------------|
 |-----------------------|----------------------/11-|
 |-----------------------|--------------------------|
 |-----------------------|--------------------------|

[Aadd2] [Eadd9] 
[E] [E] [E] [E] [+B] [E] [E] [E] [E] [+E] [E] [E] [E]  
 
 |-----------0-(0)-------------------|---------2--(2)-----2----2-|
 |-----------0-(0)-------------------|-------0------------0----0-|
 |------6----------------------------|-----1--------------1----1-|
 |-----------------------------------|---2-----------------------|
 |---7-------------------------------|---------------------------|
 |-5---------------------------------|---------------------------|

|
| ~
| Q E E E e S +S E H +E a E E E
 
 |-----------------------------------|---------------------------|
 |-------------------12--------------|-/14-------(14)-14s16---12-|
 |-9---11b13---11b13----11b13r(11)-9-|---------------------------|
 |-----------------------------------|---------------------------|
 |-----------------------------------|---------------------------|
 |-----------------------------------|---------------------------|

E. S +E E +Q. [Bsus4/E]E E [B/E]E E [Amaj7/EEadd9]E Q E E
 
 |---2--2-(2)-2-(2)---2-|---2--2---4-4----2--|
 |---0--0-(0)-0-(0)---5-|---5--4---2-2----0--|
 |---1--1-(1)-1-(1)---4-|---4--4---2-2----1--|
 |--------------------2-|---2--2---2-2----2--|
 |----------------------|--------------------|
 |----------------------|--------------------|

|
| >
| +W +W
 
 |----------------------|--------------------|
 |-(12)-----------------|-(12)---------------|
 |----------------------|--------------------|
 |----------------------|--------------------|
 |----------------------|--------------------|
 |----------------------|--------------------|

H.. [Bsus4/E]E E [B/E]E E [Amaj7/EG#m7]E Q E E
 
 |-2--------------------2-|---2--2---4-4----2-|
 |-0--------------------5-|---5--4---2-2----0-|
 |-1--------------------4-|---4--4---2-2----1-|
 |-2--------------------2-|---2--2---2-2------|
 |------------------------|-------------------|
 |------------------------|-------------------|

|
| E E E E E Q. +W
 
 |------------------------|-------------------|
 |--------17-19-17--------|-------------------|
 |-----16----------16-----|-(16)--------------|
 |------------------------|-------------------|
 |------------------------|-------------------|
 |------------------------|-------------------|

H.. [Bsus4/B/E]E E E E [Amaj7/EEadd9]E Q E E
 
 |---2---------------------------2-|-2-2---4-4----2--|
 |---0---------------------------5-|-5-4---2-2----0--|
 |---1---------------------------4-|-4-4---2-2----1--|
 |-------------------------------2-|-2-2---2-2----2--|
 |---------------------------------|-----------------|
 |---------------------------------|-----------------|

|
| +E E E E +E +E E E W
 
 |---------------------------------|-----------------|
 |---------------------------------|-----------------|
 |-(16)----------------------------|-----------------|
 |-------9s11-13-(13)b14r(13)-11s9-|-9---------------|
 |---------------------------------|-----------------|
 |---------------------------------|-----------------|

H.. [C#m7]E +E [C#mAadd2]Q E +E Q [E]E
 
 |--2------------------0-|-(0)-0--0-(0)-0--0-|
 |--0------------------0-|-(0)-0--0-(0)-0--0-|
 |--1------------------9-|-(9)-8--6-(6)----1-|
 |--2------------------9-|-(9)-9--7-(7)----2-|
 |---------------------x-|-(x)----0-(0)----2-|
 |---------------------9-|-(9)-------------0-|

|
| +E E E E E E E a E +W
 
 |-----------------------|-------------------|
 |-----------------------|-------------------|
 |-----------------------|-------------------|
 |-(9)----2s4s2----------|-------------------|
 |------2-------/4s2-2s7-|-(7)---------------|
 |-----------------------|-------------------|

Guitar Solo
+E [G#m7]Q. H [F#m11]E E E E +H
 
 |-(0)-2----0----||-------4-(4)--------------------|
 |-(0)-0----0----||-------2-(2)--------------------|
 |-(1)-1----1----||-----2-4-(4)--------------------|
 |-(2)-----------||---2----------------------------|
 |-(2)-----------||--------------------------------|
 |-(0)-----------||-2------------------------------|

|
| PM
| |--3---|
| +W H S S E +E E E
 
 |---------------||---------------17b19r(17)-17-16-|
 |---------------||-------------0------------------|
 |---------------||--------------------------------|
 |---------------||--------------------------------|
 |-(7)-----------||--------------------------------|
 |---------------||--------------------------------|

[G#m7] [Amaj9]  
[E] [E] [E] [E] [+B] [E] [E] [E] [E] [+B]  
 
 |--------2--(2)------------|--------4----(4)-----------------------|
 |--------0--(0)------------|--------2----(2)-----------------------|
 |------4-------------------|-----2--4----(4)-----------------------|
 |----6---------------------|---------------------------------------|
 |--------------------------|---2-----------------------------------|
 |--4-----------------------|-0-------------------------------------|

|
| ~~~~~~~~~~~~~
 
 | |-----3-----|

| H +E. S S S E Q E Q E +E +E E
 
 |-14-------(14)----14-16---|-------17b19-----17b19-(17)b19r(17)-16-|
 |---------------17---------|---------------------------------------|
 |--------------------------|---------------------------------------|
 |--------------------------|---------------------------------------|
 |--------------------------|---------------------------------------|
 |--------------------------|---------------------------------------|

[G#m7] [F#m11] 
[E] [E] [E] [E] [+B] [E] [E] [E] [E] [+B]  
 
 |----------2----(2)----------------|----------4-----(4)--------------|
 |----------0----(0)----------------|----------2-----(2)--------------|
 |--------4-------------------------|-------2--4-----(4)--------------|
 |------6---------------------------|-----2---------------------------|
 |----------------------------------|---------------------------------|
 |--4-------------------------------|--2------------------------------|

|
| ~~~~ ~~~ ~~~
 
 | |---3---|

| Q.. S Q E +S S Q. Q. +E E E
 
 |-14------------14-----------------|---------17b19=======(17)r-17-16-|
 |------------17------16b18r(16)----|-14------------------------------|
 |-------------------------------16-|---------------------------------|
 |----------------------------------|---------------------------------|
 |----------------------------------|---------------------------------|
 |----------------------------------|---------------------------------|

[G#m7] E E E E H [C#m9] E E E Q +E Q
 
 |----------2-----2------------|--------------0--0----------------(0)--------0----|
 |----------0-----0------------|--------------0--0----------------(0)--------0----|
 |--------4--------------------|--------------9--8----------------(8)--------9----|
 |------6----------------------|----------11--------------------------------------|
 |-----------------------------|--------------------------------------------------|
 |--4--------------------------|-/9-----------------------------------------------|

|
| ~~~~ ~~~ ~~~ ~~~~~ ~~
 
 | |--3--| |--3--| |-------6-------|

| Q.. S E. S E. S S S S E E S S S S S S S S S E E
 
 |-14------------14-----14-----|-14-16----------------14-16-19-14h16-----14-------|
 |------------17-----17-----17-|-------17-14-14-14-17-----------------17----14-17-|
 |-----------------------------|--------------------------------------------------|
 |-----------------------------|--------------------------------------------------|
 |-----------------------------|--------------------------------------------------|
 |-----------------------------|--------------------------------------------------|

E E E Q E Q [F#m11]E E E E +H
 
 |---0-----------------------------0--|-----------4-(4)-------------------------|
 |---0--------0--------------------0--|-----------2-(2)-------------------------|
 |---8----------------8---------------|---------2-4-(4)-------------------------|
 |-------11-------------------11------|----2------------------------------------|
 |------------------------------------|-----------------------------------------|
 |------------------------------------|-2---------------------------------------|

|
| ~~
| +E E E +Q +E Q E Q. S S S S +S S S S
 
 |------------------------------------|--------------9--------------------------|
 |-(17)\----[14]b17r(14)b16r=(14)-----|---12b14---------9-12--------------------|
 |--------------------------------13--|----------------------11b12r(11)p9-------|
 |------------------------------------|-----------------------------------11-9--|
 |------------------------------------|-----------------------------------------|
 |------------------------------------|-----------------------------------------|

[G#m7] [Amaj9] 
[E] [E] [E] [E] [+B] [E] [E] [E] [E] [+B]  
 
 |--------------------2---(2)------------|--------4-(4)--------------------|
 |--------------------0---(0)------------|--------2-(2)--------------------|
 |---------------4-----------------------|------2-4-(4)--------------------|
 |---------6-----------------------------|---------------------------------|
 |---------------------------------------|----2----------------------------|
 |--4------------------------------------|-0-------------------------------|

|
| ~~
| E +S S S S S S S S S S Q E H +E E +E
 
 |---------------------------------------|---12---------(12)-11b12r(11)b12r|
 |---------------------------------------|---------------------------------|
 |-11b13r(11)p9--------------------------|---------------------------------|
 |--------------11-9---------------------|---------------------------------|
 |-------------------11p9-----9-11p9-11--|---------------------------------|
 |------------------------12-------------|---------------------------------|

[G#m7] [F#m11] 
[E] [E] [E] [E] [+B] [E] [E] [E] [E] [+B]  
 
 |---------------------2-----(2)---------|-------------4----(4)-------------------|
 |---------------------0-----(0)---------|-------------2----(2)-------------------|
 |--------------4------------------------|----------2--4----(4)-------------------|
 |---------6-----------------------------|----2-----------------------------------|
 |---------------------------------------|----------------------------------------|
 |---4-----------------------------------|-2--------------------------------------|

|
| ~~~~
| +S S S S +S S E +Q +Q E S S E E E S S E S S
 
 |-(11)-9----9-(9)-----------------------|---------12-14b16-----------12-14-12----|
 |--------12-------12-12b14r(12)--(12)\--|---12-14--------------12-14-------------|
 |---------------------------------------|----------------------------------------|
 |---------------------------------------|----------------------------------------|
 |---------------------------------------|----------------------------------------|
 |---------------------------------------|----------------------------------------|

E E E E +H [Amaj9] E E E E +S E. E. S
 
 |-------------------2-(2)---------------|----------------------4----(4)--4--------4--------4-----|
 |-------------------0-(0)---------------|----------------2-----2----(2)--2--------2--------2-----|
 |---------------4-----------------------|----------------------4----(4)--4--------4--------4-----|
 |--------6------------------------------|--------2-----------------------------------------------|
 |---------------------------------------|--0-----------------------------------------------------|
 |--4------------------------------------|--------------------------------------------------------|

|
| ~~
| E E +E Q E S S E E S E S E S E S E S S
 
 |-15b17-14b15r(14)-12-----14b16----12-0-|-------19---------19-------19--------19-------19--------|
 |-------------------------------12------|-19b21----19b21------19b21-----19b21----19b21----19b21==|
 |---------------------------------------|--------------------------------------------------------|
 |---------------------------------------|--------------------------------------------------------|
 |---------------------------------------|--------------------------------------------------------|
 |---------------------------------------|--------------------------------------------------------|

+E E +S E. E S S E E
 
 |--(4)-----4----(4)--4---------4-----4--4--4----------4-|
 |--(2)-----2----(2)--2---------2-----2--2--2----------2-|
 |--(4)-----4----(4)--4---------4-----4--4--4----------4-|
 |-------------------------------------------------------|
 |-------------------------------------------------------|
 |-------------------------------------------------------|

|
| +S S S S S S S S S S S S S +S E
 
 |-------------------------------------------------------|
 |-(19)-19-19-19-19--19--19-19r19-17-19-17---------------|
 |-----------------------------------------16b17r(16)-14-|
 |-------------------------------------------------------|
 |-------------------------------------------------------|
 |-------------------------------------------------------|

[Badd4] [C#m7] 
[E] [E] [E] [E] [+B] [E] [E] [E] [E] [+B]  
 
 |---------------0-----(0)--------|-------------0-(0)---------|
 |---------------0-----(0)--------|-------------0-(0)---------|
 |------------8-------------------|----------9----------------|
 |------9-------------------------|------11-------------------|
 |--------------------------------|---------------------------|
 |--------------------------------|---------------------------|

|
| ~
| E +E E. S +E E E E Q +E Q E S S E
 
 |--------------------------------|---------------------------|
 |----------/12----12-(12)s10-9-7-|-9b10r===(9)-7-----9---0-5-|
 |-14-(14)\-----------------------|---------------------------|
 |--------------------------------|---------------------------|
 |--------------------------------|---------------------------|
 |--------------------------------|---------------------------|

[Emaj7/G#]  
[E] [E] [E] [E] [+B]  
 
 |-----------0---(0)---------------|
 |-----------4---(4)---------------|
 |-------4-------------------------|
 |-----2---------------------------|
 |---------------------------------|
 |--4------------------------------|

|
| ~~~
| +Q S S S S S S S S S S S S
 
 |---------------------------------|
 |-(5)---5-0-4-5--0--4-5-0-4h5-0-4-|
 |---------------------------------|
 |---------------------------------|
 |---------------------------------|
 |---------------------------------|

[Aadd2]  
[E] [E] [E] [E] [+B]  
 
 |-------------------0-------(0)-------------------------------|
 |-------------------0-------(0)-------------------------------|
 |-----------6-------------------------------------------------|
 |-------------------------------------------------------------|
 |-----7-------------------------------------------------------|
 |-5-----------------------------------------------------------|

|
| |-3-|
| S S S S S T T T T T T T T T T T T T T T T T T T T T T T T
 
 |-------------------------------------------------------------|
 |-5-0-4-5-0-4h5p4p0-4h5p4p0--4h5p4p0-4h5p4p0-2h4p2p0-2h4p2p0--|
 |-------------------------------------------------------------|
 |-------------------------------------------------------------|
 |-------------------------------------------------------------|
 |-------------------------------------------------------------|

[Badd4] [C#m7]  
[E] [E] [E] [E] [+B] [E] [E] [E] [E] [+B]  
 
 |---------0--(0)--------|-------------0-(0)---------|
 |---------0--(0)--------|-------------0-(0)---------|
 |-------8---------------|----------9----------------|
 |---9-------------------|------11-------------------|
 |-----------------------|---------------------------|
 |-----------------------|---------------------------|

|
| ~~~~~~~~~ ~
| Q Q +E E E E Q +E Q E E S S
 
 |-----------------------|---------------------------|
 |-0---/12---(12)-10-9-7-|-9b10r===(9)-7-----9-------|
 |-----------------------|-----------------------9-8-|
 |-----------------------|---------------------------|
 |-----------------------|---------------------------|
 |-----------------------|---------------------------|

[Emaj7/G#]  
[E] [E] [E] [E] [+B]  
 
 |---------------0--(0)----------------------------|
 |---------------4--(4)----------------------------|
 |---------4---------------------------------------|
 |-----2-------------------------------------------|
 |-------------------------------------------------|
 |-4-----------------------------------------------|

|
| ~~~~~~~
| |--3--|
| E E +Q Q +S S S S S
 
 |---/11-(11)b12---[11]b12--([11])b12--------------|
 |------------------------------------/16-16-17-16-|
 |-9-----------------------------------------------|
 |-------------------------------------------------|
 |-------------------------------------------------|
 |-------------------------------------------------|

[Aadd2]  
[E] [E] [E] [E] [+B]  
 
 |--------------------------0-------(0)-----------------------------|
 |--------------------------0-------(0)-----------------------------|
 |-----------------6------------------------------------------------|
 |------------------------------------------------------------------|
 |--------7---------------------------------------------------------|
 |--5---------------------------------------------------------------|

|
 
 | |--3--| |------6-------| |-3-| |--3--| |3-| |--3--|

| S S S S S S S S S S S E S S S S S E S S S
 
 |-------16---------------------------------------------------------|
 |-17-19----17-19-16-17----16---------------------------------------|
 |----------------------18----16-18-16--14-16-13-14----13-----------|
 |--------------------------------------------------16----16p14p13--|
 |------------------------------------------------------------------|
 |------------------------------------------------------------------|

[Badd4]  
[E] [E] [E] [E] [+B]  
 
 |-----------------0--(0)------------|
 |-----------------0--(0)------------|
 |----------8------------------------|
 |----9------------------------------|
 |-----------------------------------|
 |-----------------------------------|

|
| ~~~
| E. S Q +E +E E E
 
 |---------17pb19====(17)r(17)-16-14-|
 |-----------------------------------|
 |-----------------------------------|
 |-----------------------------------|
 |-14p==12---------------------------|
 |-----------------------------------|

[C#m7]  
[E] [E] [E] [E] [+B]  
 
 |---------------------0-(0)---------------------|
 |---------------------0-(0)---------------------|
 |-----------------9-----------------------------|
 |--------11-------------------------------------|
 |-----------------------------------------------|
 |-----------------------------------------------|

|
| ~~
| E +E +E Q E E S +S
 
 |-16b17-(16)b17r(16)-14-----16------------------|
 |--------------------------------[16]b17r([16])-|
 |-----------------------------------------------|
 |-----------------------------------------------|
 |-----------------------------------------------|
 |-----------------------------------------------|

[Emaj7/G#]  
[E] [E] [E] [E] [+B]  
 
 |-------------------------------------------------------0-------------(0)-----------------------|
 |-------------------------------------------------------4-------------(4)-----------------------|
 |--------------------------------------4--------------------------------------------------------|
 |---------------------2-------------------------------------------------------------------------|
 |-----------------------------------------------------------------------------------------------|
 |----4------------------------------------------------------------------------------------------|

|
| +S +S +S +S +S +S +S +S Q S +E +S
 
 |---------------------------------------------------------------------17b19--/21-(21)pb23==(21)r|
 |-([16])b17r([16])-([16])b17r([16])-([16])b17r([16])-([16])b17r([16])---------------------------|
 |-----------------------------------------------------------------------------------------------|
 |-----------------------------------------------------------------------------------------------|
 |-----------------------------------------------------------------------------------------------|
 |-----------------------------------------------------------------------------------------------|

[Aadd2]  
[E] [E] [E] [E] [+B]  
 
 |--------------------------0-(0)----------------|
 |--------------------------0-(0)----------------|
 |-----------------------6-----------------------|
 |-----------------------------------------------|
 |-------------------7---------------------------|
 |-----------5-----------------------------------|

|
| ~~~
| a +E +E Q. e S T T E
 
 |-(21)b22r(21)b24r(21)-19--------17-16h17p16s14-|
 |-----------------------------------------------|
 |-----------------------------------------------|
 |-----------------------------------------------|
 |-----------------------------------------------|
 |-----------------------------------------------|

[Badd4] [C#m7] 
[E] [E] [E] [E] [+B] [E] [E] [E] [E] [+B]  
 
 |------------0-(0)----------|----------------0-(0)----------|
 |------------0-(0)----------|----------------0-(0)----------|
 |-------8-------------------|------------9------------------|
 |----9----------------------|-------11----------------------|
 |---------------------------|-------------------------------|
 |---------------------------|-------------------------------|

|
| ~~
| Q Q. E E E Q +E E E E E E
 
 |-14---17b19-------17-16-14-|-16b17r===(16)-14-14-----------|
 |---------------------------|----------------------17-------|
 |---------------------------|-------------------------------|
 |---------------------------|---------------------------/18-|
 |---------------------------|-------------------------------|
 |---------------------------|-------------------------------|

[Aadd2]  
[E] [E] [E] [E] [+E] [E] [E] [E]  
 
 |------------2-(2)----2-------------2-|
 |-------0-------------0-------------0-|
 |----1----------------1-------------1-|
 |--2----------------------------------|
 |-------------------------------------|
 |-------------------------------------|

|
| ~~
| Q E E E e S +S E
 
 |--------------------19---------------|
 |-17---19b21---19b21----19b21r(19)-17-|
 |-------------------------------------|
 |-------------------------------------|
 |-------------------------------------|
 |-------------------------------------|

[Eadd9] E E E E +E E E E E. S +E E +Q. [Bsus4]E
 
 |-----------2-(2)--2-------2-|---2--2-(2)-2-(2)---2-||
 |---------0--------0-------0-|---0--0-(0)-0-(0)---5-||
 |-------1----------1-------1-|---1--1-(1)-1-(1)---4-||
 |--2-------------------------|--------------------2-||
 |----------------------------|----------------------||
 |----------------------------|----------------------||

|
| ~~~~~
| H E E E E +W
 
 |-19b21-----------21b23---19-|-(19)-----------------||
 |----------------------------|----------------------||
 |----------------------------|----------------------||
 |----------------------------|----------------------||
 |----------------------------|----------------------||
 |----------------------------|----------------------||

Main Theme/Outro
E [B/E]E E [Amaj7/E]E Q E E H.. [Eadd9] [Bsus4/E]E
 
 |---2--2---4-4----2-|-2---------------2--|
 |---5--4---2-2----0-|-0---------------5--|
 |---4--4---2-2----1-|-1---------------4--|
 |---2--2---2-2----2-|-2---------------2--|
 |-------------------|--------------------|
 |-------------------|--------------------|

|
| +Q Q H E E E E E E Q
 
 |-(19)--------------|--------------------|
 |-------------------|--------------------|
 |-------------------|--------------------|
 |-------------------|-------2s4s2--------|
 |-------------------|-----2-------2-2----|
 |-------------------|--------------------|

E [B/E]E E [Amaj7/EG#m7]E Q E E H.. [Bsus4/B/E]E
 
 |--2--2---4-4----2-|--2---------------------2-|
 |--5--4---2-2----0-|--0---------------------5-|
 |--4--4---2-2----1-|--1---------------------4-|
 |--2--2---2-2------|------------------------2-|
 |------------------|--------------------------|
 |------------------|--------------------------|

|
| +W +E E E E +E +E E E
 
 |------------------|--------------------------|
 |------------------|--------------------------|
 |------------------|--------------------------|
 |------------------|--------------------------|
 |-(2)--------------|-(2)--2s4-6-(6)b8r(6)-4s2-|
 |------------------|--------------------------|

E E E [Amaj7/EEadd9]E Q E E H.. [C#m7]E
 
 |-2-2---4-4----2-|--2------------------0-|
 |-5-4---2-2----0-|--0------------------0-|
 |-4-4---2-2----1-|--1------------------9-|
 |-2-2---2-2----2-|--2------------------9-|
 |----------------|---------------------x-|
 |----------------|---------------------9-|

|
| W +E E E E E E E a E
 
 |----------------|-----------------------|
 |----------------|-----------------------|
 |----------------|-----------------------|
 |----------------|--------2s4s2----------|
 |-2--------------|-(2)--2-------/4s2-2s7-|
 |----------------|-----------------------|

H.=H
E [C#mAadd2]Q E +E Q [E]E +E Q. +Q. [Bsus4/E]E E [B/E]E E [Amaj7/EEadd9]E Q E E H S S Q.
 
 |--0--0--0-(0)-0--0-|-(0)-0----(0)---2-|--2--2---4-4----2-|--2-----2--------*|
 |--0--0--0-(0)-0--0-|-(0)-0----(0)---5-|--5--4---2-2----0-|--0-------0------*|
 |--9--8--6-(6)----1-|-(1)------------4-|--4--4---2-2----1-|--1---------1----*|
 |--9--9--7-(7)----2-|-(2)------------2-|--2--2---2-2----2-|--2---------2----*|
 |--x-----0-(0)----2-|-(2)--------------|------------------|-----------------*|
 |--9--------------0-|-(0)--------------|------------------|-----------------*|

|
| +W +W +W +W
 
 |-------------------|------------------|------------------|-----------------*|
 |-------------------|------------------|------------------|-----------------*|
 |-------------------|------------------|------------------|-----------------*|
 |-------------------|------------------|------------------|-----------------*|
 |-(7)---------------|-(7)--------------|-(7)--------------|-(7)-------------*|
 |-------------------|------------------|------------------|-----------------*|

Duration Legend
 
 ---------------
 W - whole; H - half; Q - quarter; E - 8th; S - 16th; T - 32nd; X - 64th; a - acciaccatura

+ - note tied to previous; . - note dotted; .. - note double dotted
Uncapitalized letters represent notes that are staccato (1/2 duration)
Irregular groupings are notated above the duration line
Duration letters will always appear directly above the note/fret number it represents the
duration for. Duration letters with no fret number below them represent rests. Multi-
bar rests are notated in the form Wxn, where n is the number of bars to rest for. Low
melody durations appear below the staff
Tablature Legend
 
 ----------------

h - hammer-on
p - pull-off
b - bend
pb - pre-bend
r - bend release (if no number after the r, then release immediately)
/\ - slide into or out of (from/to "nowhere")
s - legato slide
S - shift slide
- natural harmonic
[n] - artificial harmonic
n(n) - tapped harmonic
~ - vibrato
tr - trill
T - tap
TP - trem. picking
PM - palm muting
\n/ - tremolo bar dip; n = amount to dip
\n - tremolo bar down
n/ - tremolo bar up
/n\ - tremolo bar inverted dip
= - hold bend; also acts as connecting device for hammers/pulls
- volume swell (louder/softer)
x - on rhythm slash represents muted slash
o - on rhythm slash represents single note slash
Misc Legend
 
 -----------

| - bar
|| - double bar
||o - repeat start
o|| - repeat end
*| - double bar (ending)
: - bar (freetime)
$ - Segno
& - Coda
Tempo markers - = BPM(8/16=s8/s16), where s8 = swing 8ths, s16 = swing 16ths

Important: The song above is NOT stored on the Chordie server. The original song is hosted at www.guitaretab.com. Chordie works as a search engine and provides on-the-fly formatting. Chordie does not index songs against artists'/composers' will. To remove this song please click here.

Text color:
Chord color:
Chord grids: 
Font size:    
Page size: 

Aadd2 Amaj7/E Amaj9 B/E Badd4 Bsus4 Bsus4/E C#m7 C#m9 E Eadd9 Emaj7/G# F#m11 G#m7
Rate #1 of 3 versions

Jango Player

Login - add to songbook

SHARE PAGE  




You need to log in to post comments