Guitar Tabs, Chords and Lyrics
Server problems seems to be fixed. Chordie has been experiencing problems with songs disappearing. These issues now seems to be fixed, but still verifying the fix. If you find anything strange, please email admin@chordie.com.


The Mystical Potato Head Groove Thing  Joe Satriani

PM................... PM................... PM...................
 
 ||------------------------|------------------------||--------------------------
 ||------------------------|------------------------||--------------------------
 ||*-----------------------|-----------------------*||--------------------------
 ||*---------------11--12--|---------------12--11--*||---------------11--12-----
 ||----------------7---7---|---------------7---7----||---------------7---7------
 ||----0--0--0--0----------|---0--0--0--0-----------||---0--0--0--0-------------

B PM...................
 
 |--------------------|-----------------------|----------------------|----------
 |--------------------|-----------------------|----------------------|----------
 |--------------------|-----------------------|----------------------|----------
 |--------------------|---------------12--11--|----------------------|----------
 |--------------------|---------------7---7---|----------------5~~~--|----------
 |--0--3--0---5--3p0--|---0--0--0--0----------|--0--3--0--6h7--------|----------

PM................... B PM...................
 
 ---------------------|--------------------|-----------------------|------------
 ---------------------|--------------------|-----------------------|------------
 ---------------------|--------------------|-----------------------|--------2---
 -------------11--12--|--------------------|---------------12--11--|------------
 -------------7---7---|--------------------|---------------7---7---|--2--3------
 -0--0--0--0----------|--0--3--0---5--3p0--|---0--0--0--0----------|------------

PM................... B
 
 ---0-------|-----------------------|--------------------|----------------------
 -----------|-----------------------|--------------------|----------------------
 3-----3\2--|-----------------------|--------------------|----------------------
 -----------|---------------11--12--|--------------------|----------------------
 -----------|---------------7---7---|--------------------|----------------------
 -----------|---0--0--0--0----------|--0--3--0---5--3p0--|----------------------

PM................... B B PM...................
 
 ---------------------|-------------------------|-----------------------|-------
 ---------------------|-------------------------|-----------------------|-------
 ---------------------|-------------------------|-----------------------|-------
 -------------12--11--|-------------------------|---------------11--12--|-------
 -------------7---7---|-------------------------|---------------7---7---|-------
 -0--0--0--0----------|--0--3--0---6--7---6~~~--|---0--0--0--0----------|--0----

B PM................... WB down Harm WB up
 
 ---------------|-----------------------|-------------------------------|-------
 ---------------|-----------------------|-------------------------------|/5-----
 ---------------|-----------------------|---x---------4------~~~~~~~~~--|-------
 ---------------|---------------12--11--|-------------------------------|-------
 ---------------|---------------7---7---|-------------------------------|-------
 3--0---5--3p0--|---0--0--0--0----------|-------------------------------|-------

B Rb B RB PM................
 
 -----------------------------|-------------||----------------------------------
 4----------------------------|-------------||----------------------------------
 ---5--4----------------------|-------------||*---------------9-----------------
 ---------5---4------4---~~~--|-------------||*--9------------9-----------------
 -----------------------------|/2--3--3--2--||---7------------------------------
 -----------------------------|-------------||-------0--0--0--------------------

PM..................PM........................PM...................
 
 -------------------------------------------|-----------------------------------
 -------------------------------------------|-----------------------------------
 -------------------------------------------|---------------7-------------------
 -------------11-12------11-----9--9/11--9--|---------------7-------------------
 -------------9-/10---9------7-----7-9---7--|---5--5--5--5----------------------
 -0--0--0--0--------------------------------|-----------------------------------

PM............. PM........ Harm B B
 
 -------------------------0--0------||--------14--12~~~---14--|-----------------
 -------7-----------------3--3------||---12-------------------|------17--19-----
 -------7-------4---------2--2-----*||------------------------|--18-------------
 -------7-------4------------------*||------------------------|-----------------
 -5--5-----5\2------2--2--------2---||------------------------|-----------------
 -----------------------------------||------------------------|-----------------

B B B Rb B RB PH
 
 16--17--19---19---16---------------------------|-------------------------------
 ----------------------17---------17~~~---------|---14-----12-------------------
 --------------------------16~~~---------16~~~--|---------------13p11---9-------
 -----------------------------------------------|-------------------------------
 -----------------------------------------------|-------------------------------
 -----------------------------------------------|-------------------------------

PH B RB B B B RB B RB
 
 ---------------------|-------14--12~~~---17--|---19-----21------19-----19------
 ---------------------|--12-------------------|---------------------22----------
 ~~~\7------6----~~~--|-----------------------|---------------------------------
 -------7-------------|-----------------------|---------------------------------
 ---------------------|-----------------------|---------------------------------
 ---------------------|-----------------------|---------------------------------

PH Harmonics.....Harmonics... All notes tapped on with LH whilst
 
 ----------|------12-----7------------5--||-------------h12---------------------
 ----------|--0-------7-----0---5--5-----||----------h10---h10------------------
 21-21~~~--|-----------------------------||*-------h7---------h7----------------
 ----------|-----------------------------||*----h11-------------h11------h11----
 ----------|-----------------------------||---h9-------------------h9--h9-------
 ----------|-----------------------------||-h7-----------------------h7---------

Muting strings with Rh behind and over the neck
 
 -----h12--|---------------h16---------------------------h14---||---------------
 --h10-----|------------h14---h14---------------------h12------||---------------
 h7--------|---------h11---------h11---------------h11--------*||---------------
 ----------|------h14---------------h14---------h14-----------*||---------------
 ----------|---h12---------------------h12---h12---------------||---------------
 ----------|h10---------------------------h10------------------||---------------

Harmonics until noted not
 
 -5--5--5--5--5--5--5--5--5--5--5--5--5--5--5--|--5--5--5--5--5--5--5--5--5-----
 ----------------------------------------------|--------------------------------
 ----------------------------------------------|--------------------------------
 ----------------------------------------------|--------------------------------
 ----------------------------------------------|--------------------------------
 ----------------------------------------------|--------------------------------
 5--5--5--5--5--5--5--|--7--7--------7------------------------------------------
 ---------------------|--------7--7-----7--7--7--7--7--7--7--7--7--7--7--7--7---
 ---------------------|---------------------------------------------------------
 ---------------------|---------------------------------------------------------
 ---------------------|---------------------------------------------------------
 ---------------------|---------------------------------------------------------

Stop Harm
 
 ------------------------12--12------------0--0--0--|--0--x/0--0--x\------------
 12--12--12--12--12--12-----------------------------|---------------0--0--x-----
 ---------------------------------------------------|---------------------------
 ---------------------------------------------------|---------------------------
 ---------------------------------------------------|---------------------------
 ---------------------------------------------------|---------------------------

B Rb Ph B B B B
 
 -------------------|----------14--12~~~---14--|---------------16--17--19-------
 /0-----------------|-----12-------------------|------17---19-------------------
 -----2----------2--|--------------------------|--18----------------------------
 -------------------|--------------------------|--------------------------------
 -------------------|--------------------------|--------------------------------
 -------------------|--0-----------------------|--------------------------------

B B PH Harm tillstop
 
 19---16-------------------------------------------------|-------12-----7-------
 ---------17--------------------17~~~---------17------17\|---12------7-----7----
 -------------16---18--16---16---------16~~~------16-----|----------------------
 --------------------------------------------------------|----------------------
 --------------------------------------------------------|----------------------
 --------------------------------------------------------|----------------------

Stop Harm B B B RB B Rb
 
 ---7---------5-----|-------14--12~~~---17--|---1--19--17--19---19------17------
 7-----7--5---------|--12-------------------|-----------------------------------
 -------------------|-----------------------|-----------------------------------
 -------------------|-----------------------|-----------------------------------
 -------------------|-----------------------|-----------------------------------
 -------------------|-----------------------|-----------------------------------
 19~~~-------------|--16h17p16p0--10h12p10p0--9h10p9p0--7h9p7p0-----------------
 -------17--17~~~--|---------------------------------------------7h9p7p0--------
 ------------------|------------------------------------------------------7-----
 ------------------|------------------------------------------------------------
 ------------------|------------------------------------------------------------
 ------------------|------------------------------------------------------------

B WB This bit continues under the next section that repeats
 
 ----------------------|------------h12----------------------h12--|-------------
 ----------------------|---------h10---h10----------------h10-----|-------------
 h9p7\6h7\4h-6~~~-~~~--|-------h7---------h7------------h7--------|-------------
 ----------------------|----h11-------------h11------h11----------|------h14----
 ----------------------|--h9-------------------h9--h9-------------|---h12-------
 ----------------------|h7-----------------------h7---------------|h10----------

itself 20 times Repeat this bit 20 times
 
 ------h16---------------------------h14--||---16--17p16p12------12---||--------
 ---h14---h14---------------------h12-----||-----------------17-------||--------
 h11---------h11---------------h11--------||*------------------------*||--------
 ---------------h14---------h14-----------||*------------------------*||--9-----
 ------------------h12---h12--------------||--------------------------||--------
 ---------------------h10-----------------||--------------------------||--------

PM......
 
 -----------------|-------------------------------------------------------------
 -----------9-----|--7--9-----------------------------9-----12--12--------------
 -----------7-----|--7--------------------------------7-----7---7----7--7-------
 ~~~~~~--x-----x--|--------x--x--9--9--9--9--9~~~--x-----x-----------------9----
 -----------------|-------------------------------------------------------------
 -----------------|-------------------------------------------------------------

WB UP
 
 ------------|-----------------------------------------------|---------16-------
 ------------|-----9-----7--9--------------------------9-----|--9~~~---17-------
 ------------|-----9-----7--9--------7-----------------7-----|------------------
 9--9--9~~~--|--x-----x--------x--x-----9--9--9~~~--x-----x--|------------------
 ------------|-----------------------------------------------|------------------
 ------------|-----------------------------------------------|------------------

PH B RB
 
 -----------|----------------------------|--------------------------------------
 -----------|----------------------------|-----------------------------7--9-----
 -4---------|--2-------------------------|--------------------6--7--9-----------
 -----------|-----4--2--1----2--4--------|-------7-----6h7h9--------------------
 -----------|------------/5--------5~~~--|--7h9-----9---------------------------
 -----------|----------------------------|--------------------------------------
 ----7--9h10p9p7------7h9p7--10p7--9p7------7--9--10p9p7h10p7--|---14p10---14---
 10---------------10--------------------10---------------------|----------------
 --------------------------------------------------------------|----------------
 --------------------------------------------------------------|----------------
 --------------------------------------------------------------|----------------
 --------------------------------------------------------------|----------------

T T T T
 
 p10p9p7---13/14\13p10p9p7---13/14\13p10p9p7---13/14\13p10p9p7---13/14\13p10----
 -------------------------------------------------------------------------------
 -------------------------------------------------------------------------------
 -------------------------------------------------------------------------------
 -------------------------------------------------------------------------------
 -------------------------------------------------------------------------------

T T T T T
 
 p9p7---13/14\13p10p9p7---13/14\13p10p9p7---13/16p7/10---17/18\17p13p10---17----
 -------------------------------------------------------------------------------
 -------------------------------------------------------------------------------
 -------------------------------------------------------------------------------
 -------------------------------------------------------------------------------
 -------------------------------------------------------------------------------

T T T T
 
 /18\17p13p10---17/18\17p13p10---17/18\17p13p10---17/18\17p13p10---17/18\17-----
 -------------------------------------------------------------------------------
 -------------------------------------------------------------------------------
 -------------------------------------------------------------------------------
 -------------------------------------------------------------------------------
 -------------------------------------------------------------------------------

B RB B
 
 p13p10--|--20-------17------------------------|--------------------------------
 --------|---------------18---------17---------|--------------------------------
 --------|-------------------17\15-------------|--15p12--15p12------15p12-------
 --------|------------------------------14~~~--|----------------12---------14---
 --------|-------------------------------------|--------------------------------
 --------|-------------------------------------|--------------------------------
 -------------------------------------------------------------------------------
 -------------------------------------------------------------------------------
 15p12--15p12------15p12------15p12--15p12------15p12------15p12--15p12---------
 --------------14---------14----------------14---------14----------------14-----
 -------------------------------------------------------------------------------
 -------------------------------------------------------------------------------

[B]  
 
 ----------|--13--------------15------13----------------------------------------
 ------13--|------15--14--13------14------15--14--13----------------------------
 ----------|------------------------------------------15--12-------------12-----
 p12-------|--------------------------------------------------15--12--8---------
 ----------|--------------------------------------------------------------------
 ----------|--------------------------------------------------------------------
 --------------------------------------------------------------------|----------
 -----8-10--10--10--8-10--10--10--8-10--10--10--9-----7--9--7--9--7--|----------
 ~~~--9/11--11--11--9/11--11--11--9/11--11--11--9-----7--9--7--9--7--|----------
 --------------------------------------------------9-----9--7--9--7--|--9--7----
 --------------------------------------------------------------------|----------
 --------------------------------------------------------------------|----------

T Trill with pick B
 
 --------------------------|-----------------------|------19--19~~~--|----------
 7--------7-----9--7--9--7-|-----------------------|-----------------|--15------
 7--------7-----9--7--9--7/|--14h-16---------------|-----------------|----------
 7--9--7--7--9--9--7--9--7-|-----------------------|-----------------|----------
 --------------------------|-----------------------|-----------------|----------
 --------------------------|-----------------------|-----------------|----------

Warble bar
 
 14--16--17------------------------------------|-------------h2h3h5p3p2~~~------
 ------------15--------------------------------|----------4h5-------------------
 ----------------16------0---------------------|/4---4h5------------------------
 --------------------14-----12-----------------|--------------------------------
 -------------------------------14--12--14~~~--|--------------------------------
 ----------------------------------------------|--------------------------------

WB WB B B B
 
 ~~~--|/7-~~~--|-----------19--|----------14--12---14--|---------------16--17---
 -----|--------|------19-------|-----12----------------|------17---19-----------
 -----|--------|--16-----------|-----------------------|--18--------------------
 -----|--------|---------------|-----------------------|------------------------
 -----|--------|---------------|-----------------------|------------------------
 -----|--------|---------------|-----------------------|------------------------

B B Harmonics until stop
 
 19--19---19---16----------------------------|-------12---------7-----7--12-----
 ------------------17------17~~~-------------|---12------12--7-----7------------
 ----------------------16---------16--16~~~--|----------------------------------
 --------------------------------------------|----------------------------------
 --------------------------------------------|----------------------------------
 --------------------------------------------|----------------------------------

Stop B B B B
 
 ---5-----7--------3--4--3---2--0--|-------14--12---17~~~--|---19-21--21--19----
 5-----7-----7--3------------------|--12-------------------|--------------------
 ----------------------------------|-----------------------|--------------------
 ----------------------------------|-----------------------|--------------------
 ----------------------------------|-----------------------|--------------------
 ----------------------------------|-----------------------|--------------------
 ---19-----------|--16h17p16p0--14h16p14p0--12h14p12p0--10h12p10p0--9h10p9p0----
 22--------------|--------------------------------------------------------------
 ------20-20~~~--|--------------------------------------------------------------
 ----------------|--------------------------------------------------------------
 ----------------|--------------------------------------------------------------
 ----------------|--------------------------------------------------------------

B Rb Wb
 
 ------------------------------|------------------------------------------------
 9h10p9p0--7h9p7p0-------------|------------------------------------------------
 --------------------6~~~-~~~--|--7--7--6--4--4---------4-----------------------
 ------------------------------|-----------------7p6h7-----7--4h6--4h6p4\2--4---
 ------------------------------|------------------------------------------------
 ------------------------------|------------------------------------------------

[B]  
 
 -------------------------------------------|------------||---------------------
 -------------------------------------------|---------9--||---9--9--9-----------
 -------------------------------------------|---------9--||*--9--9--9-----------
 2h4p2--------------------------------------|--12-11--9--||*--9--9--9-----7-----
 -------5--4p2---4--2--4--2--------------2--|--10\9---7--||---7--7--7-----5-----
 ----------------------------4--0--0--0--0--|------------||------------7--------

Pick slide
 
 ---------------------||------------------------------------------------|-------
 -----------------9---||--9--9--9---------------------------------9--9--|-------
 -----------------9--*||--9--9--9---------------------------------9--9--|-------
 -6--4--4--12-11--9--*||--9--9--9-----7-6--4--4-------------------9--9--|-------
 \4--2--2--10\9---7---||--7--7--7-----5\4--2--2-----5--4--2--2----7--7--|-------
 ---------------------||-----------7-------------0--3--2--0--0/x///-----|-------


Important: The song above is NOT stored on the Chordie server. The original song is hosted at www.guitaretab.com. Chordie works as a search engine and provides on-the-fly formatting. Chordie does not index songs against artists'/composers' will. To remove this song please click here.

Text color:
Chord color:
Chord grids: 
Font size:    
Page size: 

B
Rate #6 of 6 versions

Login - add to songbook

SHARE PAGE  




You need to log in to post comments