Guitar Tabs, Chords and Lyrics
Server problems seems to be fixed. Chordie has been experiencing problems with songs disappearing. These issues now seems to be fixed, but still verifying the fix. If you find anything strange, please email admin@chordie.com.


The Souls of Distortion   Joe Satriani

 
 +-o-+-o-+-o-+-o-+--o-+-o-+-o-+-o-+-o-+-o-+-o-+-o-+-o-+-0-+-o-+-o-+-0-+-o-+-
 |-6---6---6---6---6----6---6---6---6---6---6---6---6---6---6---6---6---------|
 |-6---6---6---6---6h7--7---7---6---6---6---6---6---6h7-7---7---6---6---------|
 |-8---8---8---8---8----8---8---8---8---8---8---8---8---8---8---8---8---------|
 |----------------------------------------------------------------------4---4-|
 |----------------------------------------------------------------------6---6-|
 |----------------------------------------------------------------------------|

 


 


 (continue wah pattern throughout Song)


 


 

 
 +o+-0-+--0--+-o-+-o-+-o-+-o-+--0---+-o-+-o-+-o-+-o-+-o-+-o-+-o-+-o-+-0-
 |--------------------------------------------------------------------------|
 |--------------------------------------------------------------------------|
 |--------------------------------------------------------------------------|
 |--6/8---x------x---x---x---x---x------x---x---4---4---8---9---8---6---8---|
 |--8/9---x------x---x---x---x---x------x---x---6---6---9---11--9---8---9---|
 |--------------------------------------------------------------------------|
 |-------------------------------------------------------------------------|
 |-------------------------------------------------------------------------|
 |-------------------------------------------------------------------------|
 |--x---x---4---4------6-(6)/8---6---4---4/6--(6)--4---x---4------x--------|
 |--x---x---6---6------8-(8)/9---8---6---6/8--(8)--6---x---6------x---11\--|
 |-------------------------------------------------------------------------|
 |--------------------------------------------------------------------------|
 |--------------------------------------------------------------------------|
 |--------------------------------------------------------------------------|
 |--x---x---x---x---4------4---6---(6)---8---x---x---x---x---x---x---x---4--|
 |--x---x---x---x---6------6---8---(8)---9---x---x---x---x---x---x---x---6--|
 |--------------------------------------------------------------------------|
 |---------------------------------------------------------------------------|
 |---------------------------------------------------------------------------|
 |---------------------------------------------------------------------------|
 |--4/---8---9---8---6---8---(8)---x---x---4---4---11---(11)\9---8---6---8---|
 |--6/---9---11--9---8---9---(9)---x---x---6---6---13---(13)\11--9---8---9---|
 |---------------------------------------------------------------------------|
 |-------------------------------------------------------------------------|
 |-------------------------------------------------------------------------|
 |-------------------------------------------------------6---6/8-----------|
 |--x------x---x---x---x--------x------x-------4/8---x---x---x-----6/8\6---|
 |--x------x---x---x---x--------x------x-------x/----x---4---4/6---x-------|
 |-------------------------14\--x------x---x---2/6---x-------------4/6\4---|
 |--------------------------------------------------------------------|
 |--------------------------------------------------------------------|
 |--------------------------------------------------------------------|
 |--4/6---8---x---x---4---6---x---x---8---9---8---6---4---4---x---x---|
 |--x-----x---x---x---x---x---x---x---x---x---x---x---x---x---x---x---|
 |--2/8---6---x---x---2---4---x---x---6---7---6---4---2---2---x---x---|
 |------------------------------------------------------------------------|
 |------------------------------------------------------------------------|
 |--6/8\6---8---6/8---x---x---------------------------6/8--6/8--6---6/8---|
 |--x-------x---x-----x---x---4/6---8\6---4---x---x---x----x----x---x-----|
 |--4/6\4---6---4/6---x---x---x-----x-----x---x---x---4/6--4/6--4---4/6---|
 |----------------------------2/4---6\4---2---x---x-----------------------|

 


 


 vib


 


 

 
 |----------------------------------------------------------------------------|
 |----------------------------------------------------------------------------|
 |--x---x--------------------------------6---6---6---8------------------------|
 |--x---x-------4---4-----4---4--4--6/8-----------------6/8\6--4--6/8--8/-----|
 |--x---x--4/6---------6------------------------------------------------------|
 |-------------------------------------------------------------------------x--|
 |-----------------------------------------------------------------------------|
 |-----------------------------------------------------------------------------|
 |-----------------------------------------------------------------------------|
 |--------4--x--x---8--9---8---4/6---4---4---x---x---x-------------------------|
 |--4/6------------------------------------------------4/6---4---4---6---x---x-|
 |-----------------------------------------------------------------------------|

 


 


 ph b½ b½


 


 

 
 |----------------------------------------------------------------------------|
 |----------------------------------------------------------------------------|
 |----------------------------------------------------------------------------|
 |--4----4----4---4---x-------------------------------------------------------|
 |----------------------4/6----4---4h6---x---x---x-----------------------4/6--|
 |--------------------------------------------------4---4---2---2---4---------|
 |-------------------------------------------6-----6---6-----------6----------|
 |-------------------------------------------6h7---6---6---6h7--6-----9--9--9-|
 |-------------------------------------------8-----8---8---8----8-------------|
 |-----------------4h6--4--4h6--4---------------------------------------------|
 |--4---4---6---6------------------6--4--6------------------------------------|
 |----------------------------------------------------------------------------|
 |---------------------------------------------------------------------------|
 |--9--7--6------------------------------------------------------------------|
 |------------8--8--------8--8---------8--------------------8----------------|
 |-------------------6/8-----8--6--6h8-----8--6--6---(6)/8-------------------|
 |--------------------------------------------------------------x-x-x-x-x-x--|
 |---------------------------------------------------------------------------|
 |------------------------------------------------------------------------|
 |------------------------------------------------------------------------|
 |------------------------------------------------------------------------|
 |------------------------------------------------------------------------|
 |--x-x-x-x-x-x--x-4h6-x-x-x-x-x-x--x-6-x-x-x--x-x-4h6-x-x-x-x-x-x--x-6-x-|
 |------------------------------------------------------------------------|

 


 


 Wah Off


 


 

 
 ub1-r b1 vib-----| ub1 vib-----| b1
 |----------------------------------------11----------------------11----------|
 |-------------14-------12--14---------------11-14-14----------------11-14-14-|
 |----------------------------------------------------------------------------|
 |----------------------------------------------------------------------------|
 |-x-x-x-x-x------------------------------------------------------------------|
 |----------------------------------------------------------------------------|

 


 


 ub1 vib---| b½ b1 b1-r


 


 

 
 |--------------11--14---14---11----11----------------------------------------|
 |--14------------11-------------14---11-14-11------11------------------------|
 |----------------------------------------------13-----14-13p11----13---11----|
 |--------------------------------------------------------------13----13---13-|
 |----------------------------------------------------------------------------|
 |----------------------------------------------------------------------------|
 vib---| b½---r-vib----| b1 b½ b1
 |----------------------------------------------------------11------11---14--|
 |------------------10------------------------------------11----14----11-----|
 |-------------------------------------10-------10/11-13---------------------|
 |--11------(11)\-------------------13----11--13-----------------------------|
 |---------------------------------------------------------------------------|
 |---------------------------------------------------------------------------|
 b1 b½--r-b½---r
 |--16---11-----11----13--(13)--(13)p11----11----------------------------------|
 |------------14---11-------------------14----14-13p11-----13p11----11---------|
 |------------------------------------------------------13-------13---13p11\10-|
 |-----------------------------------------------------------------------------|
 |-----------------------------------------------------------------------------|
 |-----------------------------------------------------------------------------|
 b½---r-vib----|
 |-------9-13-11p9h13p9------------------------------------------------------|
 |-----11---------------13-9-------------------------------------------------|
 |--11-----------------------10-8\6--8-----6\5----5---(5)---(5)\3--5----3-5--|
 |----------------------------------8----8------8---------------------6------|
 |---------------------------------------------------------------------------|
 |---------------------------------------------------------------------------|
 |----------------------------------------------------------------------------|
 |----------------------------------------------------------------------------|
 |--6-3-5---3-------------5h6h8p5/6h8h10p8p6-----6----------------------------|
 |--------6---6p4\3/4-6h8---------------------10---10-8-6h8h10p8p6---6-8-9--6-|
 |-----------------------------------------------------------------9-------9--|
 |----------------------------------------------------------------------------|
 ph-vib----| b¼ wb(d4-u0) vib--------|
 |----------------------------------0---------0-------------------------------|
 |--------------------------------------------------------11----11---(11)\-8/-|
 |----------------------------------------------------------------------------|
 |----------------------------------------------------------------------------|
 |--9-8p6\4/6---6-----------9p0--0----------------16\-4/----------------------|
 |----------------------------------------------------4/----------------------|

 


 


 b½ b½ b½ b½ b1½ ph-b1 b1-r


 


 

 
 |--14----14----14----14----14----14h18p14----14-18p14-18---18-----18p16-----|
 |-----18----18----18----18----18----------18----------------------------19--|
 |---------------------------------------------------------------------------|
 |---------------------------------------------------------------------------|
 |---------------------------------------------------------------------------|
 |---------------------------------------------------------------------------|
 |-----18-------16-------18----18----21----20----18----18-------16-16-------14-|
 |--16----16\14----14/16----16----16----16----16----16----16\14-------14\13----|
 |-----------------------------------------------------------------------------|
 |-----------------------------------------------------------------------------|
 |-----------------------------------------------------------------------------|
 |-----------------------------------------------------------------------------|

 


 


 vib---|


 


 

 
 |--------13----14----13----11--------------16p14p11--------------------------|
 |--13\11----11----11----11----11--14----------------16p14p11-----------------|
 |-------------------------------------------------------------13p11p10-------|
 |----------------------------------------------------------------------13p11-|
 |----------------------------------------------------------------------------|
 |----------------------------------------------------------------------------|

 


 


 t


 


 

 
 |----------------------13p11p9\8-------------------------------------------|
 |---------------------------------16p11p9\7h10--6h9p7p6--------------------|
 |--10-10----------10-x----------------------------------8p6p5-(5)h8p6p5----|
 |--------13p11p10-------------------------------------------------------8--|
 |--------------------------------------------------------------------------|
 |--------------------------------------------------------------------------|

 


 


 [b1] [b1] 


 

 
 |--------------------------------------------------------11-------14-16--|
 |-----------------------------------------------------14----11/16--------|
 |--5h6p5----5------------------------------------------------------------|
 |--------8----8p6p4\3h4h6p4p3--4h6h8p6p4\3-4p3---------------------------|
 |----------------------------------------------6\4/6---------------------|
 |------------------------------------------------------------------------|
 vib----| ub2---r vib----| b1
 |--14----------14------------------------------------16-----------------19-19-|
 |-----16--16-----------16-19--19---(19)--16----16-19-----------------16-------|
 |-----------------/18-----------------------18----------------20\/18----------|
 |-----------------------------------------------------------------------------|
 |-----------------------------------------------------------------------------|
 |-----------------------------------------------------------------------------|
 b¼ b1-hold-----r vib-------|
 |--19------------------------21----21---(21)---21----21---21--(21)\-------|
 |-----19--16----19-16--19-16----------------------------------------------|
 |------------18-----------------------------------------------------6/13--|
 |-------------------------------------------------------------------------|
 |-------------------------------------------------------------------------|
 |-------------------------------------------------------------------------|

 


 


 ph vib--|


 


 

 
 |--14hp9h11h14h11p9h14-------------------------------------------------------|
 |----------------------9h11h14p11p9-9----------------------------------------|
 |--------------------------------------13p11h13p11p8-8-----------------------|
 |------------------------------------------------------8h11h13-13-13p8/11----|
 |----------------------------------------------------------------------------|
 |----------------------------------------------------------------------------|
 vib-----| vib------------------|
 |-----------------------------------------------------------------------|
 |-----------------------------------------------------------------------|
 |-----------------------------------------------------------------------|
 |--11---(11)\-x-x-11/16-11\13----(13)\8----8------9h11--9h11p98/9\6/8---|
 |-----------------------------------------------------------------------|
 |-----------------------------------------------------------------------|
 |-----------------------------------------------------------------------------|
 |-----------------------------------------------------------------------------|
 |----------------------------------------------------------8h10h11p8/10h11h13-|
 |--8/9h11h13p11p9--11h13h15p13p11\9--11--(11)p9p8\7/8h9h11--------------------|
 |-----------------------------------------------------------------------------|
 |-----------------------------------------------------------------------------|
 |--------------------------------------------------------------------|
 |----------------------------------11h12h14p12p11h12/14h16p12h14h16--|
 |--10h11h13p11p10--13p10/11h14p11------------------------------------|
 |--------------------------------------------------------------------|
 |--------------------------------------------------------------------|
 |--------------------------------------------------------------------|

 


 


 Wah On


 


 

 
 |--13h14h16p14p13/14p16--18p16p14--16--|-------------------------------------|
 |--------------------------------------|-------------------------------------|
 |--------------------------------------|-------------------------------------|
 |--------------------------------------|-----x--x--4--4--6--(6)/8--x--x--x-x-|
 |--------------------------------------|-----x--x--6--6--8--(8)/9--x--x--x-x-|
 |--------------------------------------|-14\---------------------------------|
 |--------------------------------------------------------------------------|
 |--------------------------------------------------------------------------|
 |--------------------------------------------------------------------------|
 |--x--x--x--x--x-x--x--4--4--x--8--9---8--6--8--x--x--4--4--8--6--4--6--6--|
 |--x--x--x--x--x-x--x--6--6--x--9--11--9--8--9--x--x--6--6--9--8--6--8--8--|
 |--------------------------------------------------------------------------|
 |--------------------------------------------------------------------------|
 |--------------------------------------------------------------------------|
 |--------------------------------------------------------------------------|
 |--(6)--8--4----x--x--x-------x--x--4--4--6--(6)--8--x--x--x---------x--x--|
 |--(8)--9--6----x--x--x-------x--x--6--6--8--(8)--9--x--x--x--6p4h6--x--x--|
 |------------------------14\-----------------------------------------------|
 |----------------------------------------------------------------------------|
 |----------------------------------------------------------------------------|
 |----------------------------------------------------------------------------|
 |--x--4--4--x--x--8--9---8--6--8--x--x--x--4--4--11--(11)/9---8--6--8--6--8--|
 |--x--6--6--x--x--9--11--9--8--9--x--x--x--6--6--13--(13)/11--9--8--9--8--9--|
 |----------------------------------------------------------------------------|
 |----------------------------------------------------------------------------|
 |----------------------------------------------------------------------------|
 |-------------------------------6--6/8---------------------------------------|
 |--4--(4)/-----x--x--x--4/8--x--x--x----/8\6---4/8--8\--x--x--4/6--x--8--(8)-|
 |--6--(6)/-----x--x--x--x----x--4--4/6--x------x----x---x--x--x----x--x------|
 |-----------2--x--x--x--2/6--x----------4/6\4--2/6--6\--x--x--2/4--x--6--(6)-|
 |----------------------------------------------------------------------------|
 |----------------------------------------------------------------------------|
 |-----------------------6/8--6/8--6--6/8--x--x---------------------6/8--6/8--|
 |--9--8--6--4--4--x--x--x----x----x--x----x--x--4--6--6/8\6--4--4--x----x----|
 |--x--x--x--x--x--x--x--4/6--4/6--4--4/6--x--x--x--x--x------x--x--4/6--4/6--|
 |--7--6--4--2--2--x--x--------------------------2--4--4/6\4--2--2------------|

 


 


 vib


 


 

 
 |--------------------------------------------------------------------------|
 |--------------------------------------------------------------------------|
 |--6--4/8--x--x---------------------------6--6--6-----8--------------------|
 |--x--x----x--x-------4--x--x--4--4--6/8-----------------6/8--6--4--6/8----|
 |--4--4/6--x--x--4/6-------------------------------------------------------|
 |--------------------------------------------------------------------------|

 


 


 vib--|


 


 

 
 |---------------------------------------------------------------------------|
 |---------------------------------------------------------------------------|
 |---------------------------------------------------------------------------|
 |--x--x--4--6--4--6/8------9--8--6--4--4---------------------------------4--|
 |-----------------------------------------6--x--x--4h6--4--4--4h6--x--x--x--|
 |------------------------------------------------------------------------2--|
 vib-------|
 |--------------------------------------------------------------------------|
 |--------------------------------------------------------------------------|
 |--------------------------------------------------------------------------|
 |--6--6/8--4--4--x--x----------------------------------4--------4--4--(4)/-|
 |--x--x----x--x--x--x--4/6--4/6--4--4h6--x--x--x--4/6-----6--x-------------|
 |--4--4/6--2--2--x--x------------------------------------------------------|
 |------------------------------------------------------------------------|
 |------------------------------------------------------------------------|
 |----------------------------------------------8\--x--x--8\6--6/8--8/10--|
 |----------------------------6--4------------------x--x--x----x----x-----|
 |--x--4h6--4--4--6--x--x--x--------6--4--6--6------x--x--6\4--4/6--6/8---|
 |------------------------------------------------------------------------|

 


 


 wb vib--| wb(d1 u0)wb(d1 u0) wb(d1 u0)


 


 

 
 |-----------------------------------------------------------------------|
 |-----------------------9/11-----11---------14-------16--11--11--11/12--|
 |--10/11----------x--x--x--------x----------x--------x---x---x---x------|
 |--x--------------x--x--6/8------8----------11-------13--8---8---8--9---|
 |--8/9------------x--x--------------------------------------------------|
 |-----------------------------------------------------------------------|

 


 


 wb(d1 u0) wb(d1 u0)


 


 

 
 |---------------------------------------------------x--x--6--6--6--6--6--|
 |--11--9------9---------11---------9----------------x--x--7--7--7--6--6--|
 |--x---x--11--x---------x----------x--11--10--8--8--x--x--8--8--8--8--8--|
 |--8---6--x---6---------8----------6--x---x---x--8-----------------------|
 |---------9---------------------------9---8---6--6-----------------------|
 |------------------------------------------------6-----------------------|
 |--6--6--6--6--6--6--6--6--6--6--6--6--6--6--6--6--6--6--6--6--6--------|
 |--6--6--6--6--7--7--7--6--6--6--6--6--6--7--7--7--7--6--6--6--6--------|
 |--8--8--8--8--8--8--8--8--8--8--8--8--8--8--8--8--8--8--8--8--8--8--8--|
 |--------------------------------------------------------------------8--|
 |-----------------------------------------------------------------------|
 |-----------------------------------------------------------------------|
 |-----6--6--6--6--6--6--6--6-----|
 |-----7--7--7--6--6--6--6--6-----|
 |--6--8--8--8--8--8--8--8--8--8--|
 |--8--------------------------8--|
 |--8-----------------------------|
 |--------------------------------|


Important: The song above is NOT stored on the Chordie server. The original song is hosted at www.guitaretab.com. Chordie works as a search engine and provides on-the-fly formatting. Chordie does not index songs against artists'/composers' will. To remove this song please click here.

This song is displayed as text-only. Transposing and tuning is only available for chordpro-songs.
Rate #3 of 3 versions

Login - add to songbook

SHARE PAGE  



You need to log in to post comments