Guitar Tabs, Chords and Lyrics
Major upgrade!! After one year development the new version of Chordie is now online! Please give feedback.


Cowboy's Delight  John Denver

Newsgroups: alt.guitar.tab
Subject: TAB: Cowboy's Delight (John Denver)
Date: 25 Oct 1997 20:28:01 -0700
COWBOY'S DELIGHT (John Denver)
Style suggestion: A
 
 -------0-----|
 -----2---2---|
 ---2-------2-|
 -------------|
 -0-----------|
 -------------|

1 & 2 & 3 &
Notes: - The walkdown at the end of verse one will be
referred to as #1.
(intro)
A Asus4 Asus4 A (2x)
Sing s[A]ongs of the [Asus4]sunrise i[/]nto the n[A]igh
the st[A]ars as a [Asus4]timepiece m[/]ake it all r[A]ight
Make fr[A]iends with the [Asus4]darkness, t[/]alk to the m[A]oon
and wh[A]en the light [Asus4]lifts,
Asus4 A A/g# A/f# A/e D D/c# E (Esus4)
you can let out a tune
Th[A]en to the [Asus4]mountains, cl[/]imbed through the s[A]ky
They sh[A]owed there their w[Asus4]hiteness, wa[/]tched their gold f[A]ly
Sh[A]ared in their [Asus4]treasures, sh[/]ook at their m[A]ight
A Asus4 / C ( walkdown #2)
Spoke softly in wonders... cowboy's delight
(walkdown #2 : my best attempt at transcribing what is
probably a two-guitar part)
[C]^ ^ ^
 
 |----------0-------------|----------0-------------|
 |-------1-----1----------|-------1--------1-------|
 |----0-----------0-------|----0--------0----------|
 |------------------------|-2----------------------|
 |-3----------------------|------------------------|
 |------------------------|------------------------|

1 . 2 . 3 . 1 . 2 . 3 .
(h)
^ ^
 
 |------------------------|------------------------|
 |---1-----1--------------|------------1-----------|
 |-0-2-----0--------------|---0-----0-----0--------|
 |---------------2--------|------2-----------2-----|
 |---3--------------------|---3--------------------|
 |------------------------|------------------------|

1 . 2 . 3 . 1 . 2 . 3 .
(h)
^ ^
 
 |------------------------|------------------------|
 |---1-----1--------------|------------1-----------|
 |-0-2-----0--------------|---0-----0-----0--------|
 |---------------2--------|------2-----------2-----|
 |---3--------------------|---3--------------------|
 |------------------------|------------------------|

1 . 2 . 3 . 1 . 2 . 3 .
(h)
^ ^
 
 |------------------------|------------------------|
 |---1-----1--------------|------------------------|
 |-0-2-----0--------------|---0--------------------|
 |---------------2--------|---------3-----2--------|
 |---3--------------------|---3--------------------|
 |------------------------|------------------------|

1 . 2 . 3 . 1 . 2 . 3 .
[D] [D/C#]  
 
 |------------------------|----------2-------------|
 |----------3-------------|-------3-----3----------|
 |-------2-----2----------|----2-----------2-------|
 |----4-----------4-------|------------------------|
 |-5----------------------|-4----------------------|
 |------------------------|------------------------|

1 . 2 . 3 . 1 . 2 . 3 .
[Bm7] [D/a]  
 
 |------------------------|----------2-------------|
 |----------3-------------|-------3-----3----------|
 |-------2-----2----------|----2-----------2-------|
 |----4-----------4-------|------------------------|
 |-2----------------------|------------------------|
 |------------------------|-5----------------------|

1 . 2 . 3 . 1 . 2 . 3 .
[Bm7] [D/a]  
 
 |------------------------|----------2-------------|
 |----------3-------------|-------3-----3----------|
 |-------2-----2----------|----2-----------2-------|
 |----4-----------4-------|------------------------|
 |-2----------------------|------------------------|
 |------------------------|-5----------------------|

1 . 2 . 3 . 1 . 2 . 3 .
[Bm7] [D/a]  
 
 |------------------------|----------2-------------|
 |----------3-------------|-------3----------------|
 |-------2-----2----------|----2-------------------|
 |----4-----------4-------|----------------4-------|
 |-2----------------------|-------------2----------|
 |------------------------|-5----------------------|

1 . 2 . 3 . 1 . 2 . 3 .
Sing...
(Sing) s[A]ongs of the [Asus4]sunrise i[/]nto the n[A]ight
the s[A]ong of the [Asus4]mountains... c[/]owboy's del[A]ight
the st[A]ars as a [Asus4]timepiece m[/]ake it all r[A]ight
Sing s[A]ongs of the [Asus4]mountain...
Asus4 A... (into walkdown #1, then #2)
cowboy's delight
(intro & end)

Important: The song above is NOT stored on the Chordie server. The original song is hosted at www.guitaretab.com. Chordie works as a search engine and provides on-the-fly formatting. Chordie does not index songs against artists'/composers' will. To remove this song please click here.

Text color:
Chord color:
Chord grids: 
Font size:    
Page size: 

A Asus4 Bm7 C D D/C# D/a
Rate #1 of 1 versions

Login - add to songbook

SHARE PAGE  




You need to log in to post comments