Guitar Tabs, Chords and Lyrics
Major upgrade!! After one year development the new version of Chordie is now online! Please give feedback.


Untitled #1  John Frusciante

Untitled #3
Niandra and Usually Just A T-Shirt
RIFF 1: RIFF 2:
[C] [Em]  
 
 e|----------------------|------------7--------------|
 B|----------5-----------|---------------8-----------|
 G|-------------5--------|------------------9--------|
 D|----------------5-----|---------------------------|
 A|--3-------------------|------7--------------------|
 E|----------------------|---------------------------|

RIFF 3: RIFF 4:
[G] [G]  
 
 e|----------------------|--------------3------------|
 B|----------3-----------|-----------------3---------|
 G|-------------4--------|--------------------4------|
 D|----------------5-----|---------------------------|
 A|----------------------|---------------------------|
 E|--3-------------------|------3--------------------|

CHORDS:
[G] [Bb]  
 
 e|---3--- e|---6---|
 B|---5--- B|---8---|
 G|---5--- G|---8---|
 D|---4--- D|---7---|
 A|---3--- A|---6---|
 E|---3--- E|---6---|

RIFF 1 RIFF 2
A dove is a glove
RIFF 3 RIFF 4
That I wear in my heart And though I like to dress smart
RIFF 1 RIFF 2 G
It doesn?t have any part of the world of fashion
RIFF 1
And you?re there to put me down
RIFF 2 RIFF 3 RIFF 4
And I?m sick of the frowns that follow me around
RIFF 1 RIFF 2
I would like the sky but there?s no reason why
She?d say to this worl[G]d with the nose of a girl
Turned up so [Bb]loud that IN ARREA[G]RS, ST[Bb]EALS THE CLO[G]UDS
I've[Bb] never been [G]here and though [Bb]you're physically near
RIFF 1 RIFF 2 RIFF 3 RIFF 4
You're pushing me away to decay like the days that I loved
I tabbed this by ear from the 'Off the map DVD' on youtube so I'm not sure that this is
same for the original.

Important: The song above is NOT stored on the Chordie server. The original song is hosted at www.guitaretab.com. Chordie works as a search engine and provides on-the-fly formatting. Chordie does not index songs against artists'/composers' will. To remove this song please click here.

Text color:
Chord color:
Chord grids: 
Font size:    
Page size: 

Bb C Em G
Rate #1 of 6 versions

Jango Player

Login - add to songbook

SHARE PAGE  




You need to log in to post comments