Guitar Tabs, Chords and Lyrics
Server problems seems to be fixed. Chordie has been experiencing problems with songs disappearing. These issues now seems to be fixed, but still verifying the fix. If you find anything strange, please email admin@chordie.com.


With Love   John Frusciante

 
 e|------------------------------------------------------------------|
 B|------10----------------------------------------------------------|
 G|-7/9------9-------------------------------------------------------|
 D|------------12-10-12--12-10---------------------------------------|
 A|----------------------------12--12--12----------------------------|
 E|------------------------------------------------------------------|

 


 


 [1] [2] [3] [4] [5] [6]  

 
 e|------------------------------------------------------------------|
 B|------------------------------------------------------------------|
 G|------------------------------------------------------------------|
 D|-------------10---------------------------------------------------|
 A|10/12---------------13/12----8---8---8----------------------------|
 E|------------------------------------------------------------------|

 


 


 [1] [2] [3] [4] [5] [6]  

 
 e|---10--------13--------12---10------------------------------------|
 B|---------------------------------13---10--------------------------|
 G|------------------------------------------------------------------|
 D|------------------------------------------------------------------|
 A|------------------------------------------------------------------|
 E|------------------------------------------------------------------|

 


 


 [1] [2] [3] [4] [5] [6]  

 
 e|------------------------------------------------------------------|
 B|-8/10--------13--------10-----------------------------------------|
 G|----------------------------12---10---10--------------------------|
 D|-----------------------------------------------------------10h12--|
 A|------------------------------------------------------------------|
 E|------------------------------------------------------------------|

 


 


 [1] [2] [3] [4] [5] [6]  

 
 e|------------------------------------------------------------------|
 B|------------------------------------13----------------------------|
 G|---10h12-10------------10h1210h1210----10-------------------------|
 D|-----------------10h12--------------------------------------------|
 A|------------------------------------------------------------------|
 E|------------------------------------------------------------------|

 


 


 [1] [2] [3] [4] [5] [6]  

 
 e|------------------------------------------------------------------|
 B|------------------------------------------------------------------|
 G|-----------------------12b14r12--9--10----------------------------|
 D|---------------10h12----------------------------------------------|
 A|------------------------------------------------------------------|
 E|------------------------------------------------------------------|

 


 


 [1] [2] [3] [4] [5] [6]  

 
 e|------------------------------------------------------------------|
 B|-------13--------------11--\10---10--10---------------------------|
 G|------------------------------------------------------------------|
 D|------------------------------------------------------------------|
 A|------------------------------------------------------------------|
 E|------------------------------------------------------------------|

 


 


 [1] [2] [3] [4] [5] [6]  

 
 e|--------10--b11---------------------------------------------------|
 B|-----------------------11---\10--10--10-----------------------10--|
 G|------------------------------------------------------------------|
 D|------------------------------------------------------------------|
 A|------------------------------------------------------------------|
 E|------------------------------------------------------------------|

 


 


 [1] [2] [3] [4] [5] [6]  

 
 e|----------------------------------------------------------8-------|
 B|---8h10-8h10-8h10-8h10-8h10-8h10-8h10-8h10-8h10-8h10-8h10---------|
 G|------------------------------------------------------------------|
 D|------------------------------------------------------------------|
 A|------------------------------------------------------------------|
 E|------------------------------------------------------------------|

 


 


 [1] [2] [3] [4] [5] [6]  

 
 e|----------8--------8----------------------------------------------|
 B|---10--------10-----10p8-------------------------------------10---|
 G|------------------------10-12-10-12p10p9-1010-10p9---9-10-12------|
 D|--------------------------------------------------12--------------|
 A|------------------------------------------------------------------|
 E|------------------------------------------------------------------|

 


 


 [1] [2] [3] [4] [5] [6]  

 
 e|------------------------------------------------------------------|
 B|------------------------------------------------------------------|
 G|---12-10-9--10--10-10------12b13-12--10-9--10---------------------|
 D|------------------------------------------------------------------|
 A|------------------------------------------------------------------|
 E|------------------------------------------------------------------|

 


 


 [1] [2] [3] [4] [5] [6]  

 
 e|-------------------------------------------------------------------|
 B|---13---11---10----------------------------------------------------|
 G|------------------10---12b13b13b13r12p10p9-10-10p9--9--------------|
 D|--------------------------------------------------12-12-10-12p10---|
 A|----------------------------------------------------------------12-|
 E|-------------------------------------------------------------------|

 


 


 [1] [2] [3] [4] [5] [6]  

 
 e|------------------------------------------------------------------|
 B|------------------------------------------------------------------|
 G|------------------------------------------------------------------|
 D|---10------------10----10-10-10-12b14r12p10-----------------------|
 A|-------12-10-12-----12---------------------12-12\10-1212----12-10-|
 E|------------------------------------------------------------------|

 


 


 [1] [2] [3] [4] [5] [6]  

 
 e|------------------------------------------------------------------|
 B|------------------------------------------------------------------|
 G|------------------------------------------------------------------|
 D|-------------------------------------8/10-------------------------|
 A|---8---------8/12------8\7----------------------12----------------|
 E|------------------------------------------------------------------|

 


 


 [1] [2] [3] [4] [5] [6]  

 
 e|------------------------------------------------------------------|
 B|------------------------------------------------------------------|
 G|------------------------------------------------------------------|
 D|---10h12--------12/14----p12-10-----------------------------------|
 A|-------------------------------------12---------------------------|
 E|------------------------------------------------------------------|

 


 


 [1] [2] [3] [4] [5] [6]  

 
 e|------------------------------------------------------------------|
 B|-----------------------------------------------10-----------------|
 G|------------------------------------10----------------------9h10--|
 D|-------------10h12-12/14--14--14----------------------------------|
 A|-------10h12------------------------------------------------------|
 E|------------------------------------------------------------------|

 


 


 [1] [2] [3] [4] [5] [6]  

 
 e|---------------------8--------------------------------------------|
 B|---10----10----10--------10---------------------------------------|
 G|-----9h10--9h10----------------10--9-----10-----------------------|
 D|------------------------------------------------------------------|
 A|------------------------------------------------------------------|
 E|------------------------------------------------------------------|

 


 


 [1] [2] [3] [4] [5] [6]  

 
 e|-------10b11r10--------8------------------------------------------|
 B|----------------------------10--------10--------10----------------|
 G|------------------------------------------------------------------|
 D|------------------------------------------------------------------|
 A|------------------------------------------------------------------|
 E|------------------------------------------------------------------|

 


 


 [1] [2] [3] [4] [5] [6]  

 
 e|-------10b11-10--------8---------10-------------------------------|
 B|--------------------------------------10--------10----------------|
 G|------------------------------------------------------------------|
 D|------------------------------------------------------------------|
 A|------------------------------------------------------------------|
 E|------------------------------------------------------------------|

 


 


 [1] [2] [3] [4] [5] [6]  

 
 e|-----------------10--------------8---8---------------8------8b----|
 B|---8h10-10--------8h10-10---8h10-------10------8h10-----10--------|
 G|------------------------------------------------------------------|
 D|------------------------------------------------------------------|
 A|------------------------------------------------------------------|
 E|------------------------------------------------------------------|

 


 


 [1] [2] [3] [4] [5] [6]  

 
 e|------------------------------------------------------------------|
 B|---10--------8h10-10---8h10-10-10-----8h10-10-10-----10/8---------|
 G|------------------------------------------------------------10----|
 D|------------------------------------------------------------------|
 A|------------------------------------------------------------------|
 E|------------------------------------------------------------------|

 


 


 [1] [2] [3] [4] [5] [6]  

 
 e|----------------------------------------------------------------13-|
 B|-------------------------------------------------------------------|
 G|---9---10--------------9-------------------------------------------|
 D|--------------------------------------12---------------------------|
 A|-------------------------------------------------------------------|
 E|-------------------------------------------------------------------|


Important: The song above is NOT stored on the Chordie server. The original song is hosted at www.guitaretab.com. Chordie works as a search engine and provides on-the-fly formatting. Chordie does not index songs against artists'/composers' will. To remove this song please click here.

This song is displayed as text-only. Transposing and tuning is only available for chordpro-songs.
Rate #1 of 2 versions

Jango Player

Login - add to songbook

SHARE PAGE  



You need to log in to post comments