Guitar Tabs, Chords and Lyrics
Login is temporarily disabled for some users. Do not panic. Will be back in an hour or two. DO NOT REREGISTER!!


Femininity  John Frusciante

**************************************************************************************************
FEMININITY - John Frusciante
**************************************************************************************************
tab by: rachsieg
Tune down 1/2 step
C[C]ould you think of a better way,[G] [Am] [F]
T[C]o be even scared in the skyway.[G] [Am]
And making me a part of[F] this,[C] [Dm]
Corner of meaningles[F]s darkness.[C] [Dm] [C] [G]
Fig. 1
 
 |--------3-------3------3------3--------3------------|
 |---3/5----3/5----3/5----3/5-----3/5-----------------|
 |----------------------------------------------------|
 |----------------------------------------------------|
 |----------------------------------------------------|
 |----------------------------------------------------|

Of [C]course you could but I'd rather be,[G] [Am] [F]
What I str[C]ive along for j[G]ust to be.[Am]
You love your country,[F] [C]
Love the strife.[Dm]
Relieve your cock on your[F] beloved wife[C].[Dm] [C] [G]
But I'm in a different world too.
 
 |---5---5---5---5---------------10--10--10--8---5--5--5--5--6--5-------|
 |---6---6---6---6---------------10--10--10--10--6--6--6--6--6--6-------|
 |---7---7---7---7------------------------------------------------------|
 |---7---7---7---7------------------------------------------------------| x4
 |---5---5---5---5------------------------------------------------------|
 |-----------------------5h7h8------------------------------------------|

Cause I am moving to move,
But I'm not prepared to go get you,
And fly from your corruption stoop.
[C]And since I'm around I've got a few things to do,[G] [Am] [F]
[C]So I want to move along Cause you show te[G]nsion,[Am] aggrivation, [F] [C]
And I judge it [Dm]cold
I can't imagine your wife using that [F]to swallow[C].[Dm] [C] [G]
Fig. 3
 
 |---------------------------------------------------------------------------|
 |----------15---------15-------15-------------------------------------------|
 |--14/16----14/16----14/16--------------------------------------------------|
 |---------------------------------------------------------------------------|
 |---------------------------------------------------------------------------|
 |---------------------------------------------------------------------------|

Repeat fig. 2:
But you see I'm gonna cum down a feminine's throat,
In the surrealistic pain and wearing a coat.
So I have space that you can't chase to carry my love,
And you just have waste
 
 |--------5---5---5---5---5---5---5---5--------------------------------------|
 |--------6---6---6---6---6---6---6---6--------------------------------------|
 |--------7---7---7---7---7---7---7---7--------------------------------------|
 |--------7---7---7---7---7---7---7---7--------------------------------------|
 |--------5---5---5---5---5---5---5---5--------------------------------------|
 |---------------------------------------------------------------------------|


Important: The song above is NOT stored on the Chordie server. The original song is hosted at www.guitaretab.com. Chordie works as a search engine and provides on-the-fly formatting. Chordie does not index songs against artists'/composers' will. To remove this song please click here.

Text color:
Chord color:
Chord grids: 
Font size:    
Page size: 

Am C Dm F G
Rate #2 of 4 versions

Jango Player

Login - add to songbook

SHARE PAGE  



You need to log in to post comments