Guitar Tabs, Chords and Lyrics
Major upgrade!! After one year development the new version of Chordie is now online! Please give feedback.


Carvel  John Frusciante

Title: Carvel
Album: Shadows Collide With People
Artist: John Frusciante
Tabbed by: kjeldGr
Bm: F#m: G: A: D:
 
 -|-2-|- -|-2-|- -|-3-|- -|-0-|- -|-2-|-
 -|-3-|- -|-2-|- -|-3-|- -|-2-|- -|-3-|-
 -|-4-|- -|-2-|- -|-4-|- -|-2-|- -|-2-|-
 -|-4-|- -|-4-|- -|-5-|- -|-2-|- -|-0-|-
 -|-2-|- -|-4-|- -|-5-|- -|-0-|- -|---|-
 -|---|- -|-2-|- -|-3-|- -|---|- -|---|-

Intro:
Bm F#m G(4x)
[Bm]When I try I [F#m]force it out[G]
[Bm]Never looking in [F#m]only out[G] [A]
[D]Now is the [A]time for m[F#m]illions to l[G]ose[A]
[D]Never the [A]same since [F#m]I lost you[G] [A]
[Bm]Running me o[F#m]ut of tow[G]n
[Bm]Wishing the [F#m]best arou[G]nd[A]
[D]Would on[A]ly get [F#m]off my b[G]ack[A]
[D]Heaven r[A]eceives you and th[F#m]rows you ba[G]ck
[A]Sending a dummy to m[G]y God (x3)
[A]Sending a dummy to [F#m]my God[G]
Intro(4x)
[D]Driving to [A]eat a C[F#m]arvel ca[G]ke[A]
[D]Somewhere you kn[A]ow isn't wh[F#m]ere you th[G]ink[F#m]
F#m(3x)
[F#m]Have you gone away
Bm D A G(2x)
Solo:
 
 -|----------------------------7-|------------------------------|
 -|---------7---------7-----10---|---------7---------7----------|
 -|-----7-9-------7-9---9-7------|-----7-9-------7-9---9-7-6----|
 -|-7/9-------7/9----------------|-7/9-------7/9--------------9-|
 -|------------------------------|------------------------------|
 -|------------------------------|------------------------------|

[Bm]Have you gone, [D]have you gone [A]away alr[G]eady
[Bm](come back, [D]come back, [A]come back, [G]come back)
[Bm]Have you gone, [D]have you gone [A]away alr[G]eady
[Bm](come back, [D]come back, [A]come back, [G]come back)
[Bm]Have you gone, [D]have you gone [A]away alr[G]eady
[Bm](come back, [D]come back, [A]come back, [G]come back)
[Bm]Have you gone, [D]have you gone [A]away alr[G]eady
[Bm] [A] [F#]All the good times are [G]on their way
Solo(1x)
[Bm]Up and down [D]that's how [A]energy s[G]tays alive
[Bm] [D] [A] [G]  
[Bm]Up and down [D]that's how [A]energy s[G]tays alive
[Bm] [A] And I wo[F#m]uldn't have it any o[G]ther way
[D] [A] [Bm] [G] 

Important: The song above is NOT stored on the Chordie server. The original song is hosted at www.guitaretab.com. Chordie works as a search engine and provides on-the-fly formatting. Chordie does not index songs against artists'/composers' will. To remove this song please click here.

Text color:
Chord color:
Chord grids: 
Font size:    
Page size: 

A Bm D F# F#m G
Rate #1 of 12 versions

Jango Player

Login - add to songbook

SHARE PAGE  



You need to log in to post comments