Guitar Tabs, Chords and Lyrics
Login is temporarily disabled for some users. Do not panic. Will be back in an hour or two. DO NOT REREGISTER!!


Interior Two  John Frusciante

John Frusciante - Interior Two
Artist: John Frusciante
Song: Interior Two
Album: Inside of Emptiness
Tabber: Tom Higgy
[--]This is my attempt at this beautiful song by a great man and a great guitarist.
I'm not sure about the last chord. I think it may be a B of some kind. If you can work
it out, please let me know.
Any corrections/suggestions please email me at tomhiggy at gmail dot com.
Thanks.
[--]  
Between G and C chords play this:
 
 e:------0-|
 B:------1-|
 G:------0-|
 D:------2-|

A:0-0-2-3-|
 
 E:--------|

These are the notes the synth plays in the bridge tabbed out for guitar, with main
guitar chords above each bar:
[C] [Am] [C] [Am] [C] [Am] [C] [Am] [F]  
 
 e:12----15|17----15|12----15|17----15|12----15|17----15|12----15|17----19|20------|
 B:--------|--------|--------|--------|--------|--------|--------|--------|--------|
 G:--------|--------|--------|--------|--------|--------|--------|--------|--------|
 D:--------|--------|--------|--------|--------|--------|--------|--------|--------|
 A:--------|--------|--------|--------|--------|--------|--------|--------|--------|
 E:--------|--------|--------|--------|--------|--------|--------|--------|--------|

Intro:
C Am x4
[C] We walk into the [Am]hands of doom
[C] We're coming [Am]out interior two
Why don't you [F]come on over a[G]gain,
[C] Things here will never [Am]be the same,
[C] We feed the light wi[Am]th shadows of pain,
Why don't you [F]come on back a[G]gain,
[F] I hear our song in the w[C]ind,
[F] I'll see clouds laughing a[C]gai[G]n,
[C] We fall into [Am]forever's lap,
[C] We speak when all the [Am]lines are tapped,
And we endl[F]essly come on [G]back,
We'll come on ba[C]ck,
Bridge (While this is playing, play the tab for the bridge as above):
[Am]C Am x3
[F] I hear our song in the [C]wind,
[F] I'll see clouds laughing a[C]gai[G]n,
[C] Wherever did we [Am]find this night,
[C] I'll come back in a[Am]nother life,
Why don't you [F]come back over aga[G]in,
Won't you come back [C]over,
[Am]Yeah [C]yeah,[Am]
Come b[C]ack, come b[Am]ack,
Come b[C]ack, come b[Am]ack,
Come b[C]ack, come b[Am]ack,
Come b[C]ack, come b[Am]ack,
Come b[C]ack,

Important: The song above is NOT stored on the Chordie server. The original song is hosted at www.guitaretab.com. Chordie works as a search engine and provides on-the-fly formatting. Chordie does not index songs against artists'/composers' will. To remove this song please click here.

Text color:
Chord color:
Chord grids: 
Font size:    
Page size: 

Am C F G
Rate #1 of 5 versions

Jango Player

Login - add to songbook

SHARE PAGE  




You need to log in to post comments