Guitar Tabs, Chords and Lyrics
Server problems seems to be fixed. Chordie has been experiencing problems with songs disappearing. These issues now seems to be fixed, but still verifying the fix. If you find anything strange, please email admin@chordie.com.


Adios to California  John Hiatt

This song is played in standard EADGBe tuning, but capoed at the second fret.
Contact me if you've got a question or comment. Cheers!
CAPO II
INTRO:
[Am] [C] [Fmaj7] [Dm]  
 
 e|---------------|---------------|-------------------|-------------------|
 B|---------------|---------------|-------------------|-------------------|
 G|---------------|---------------|-------------------|-------------------|
 D|---------------|---------0h2---|-3--------2--------|-0-----0h2--0------|
 A|-0---------2---|---3-----------|-------------------|-------------------|
 E|---------------|---------------|-------------------|-------------------|

[Dm] [Fmaj7] [G] [Am]  
 
 e|------------------|---------------|---------------------|-----------------|
 B|------------------|---------------|---------------------|-----------------|
 G|------------------|---------------|---------------------|-----------------|
 D|-----0h2--0-------|---------------|---------------------|----------0h2----|
 A|--------------3---|---0-----------|--------------0-2-3--|-0---------------|
 E|------------------|---------------|-3----------3--------|-----------------|

[Am]Smokey room and a [C]thin blue light
[Fmaj7]Her arms were [Dm]pale as white
[Dm]Tryin' to out-[Fmaj7]last the night
[G]Howlin' at the [Am]moon
[Am]Living in the C[C]anyon Inn
[Fmaj7]Hangdown Hanna and [Dm]Whis-key Jim
[Dm]Dirty jeans and [Fmaj7]mud-slide hymns
[G]That all began with [Am]"Soon"
(Chorus:)
[F]So Adios to Cali-[G]forn-[C]ia
[G]Nothing to do but turn a-[Am]round
I [F]always thought there's someone [G]comin' [C]for ya
[Am]Only [G]way you'd leave this [Fmaj7]town
(repeat intro riff)
[Am]Pasadena in the [C]rain
[Fmaj7]Eatin' donuts and [Dm]readin' Twain
[Dm]How much longer [Fmaj7]can my brain
[G]Set itself on [Am]fire?
[Am]You said "That's [C]it for me"
[Fmaj7]Have a little faith, it might [Dm]set you free
[Dm]But your faith's no [Fmaj7]good, you see
[G]For me and my des-[Am]ire
(Chorus:)
[F]So Adios to Cali-[G]forn-[C]ia
[G]Nothing to do but turn a-[Am]round
I [F]always thought there's someone [G]comin' [C]for ya
[Am]Only [G]way you'd leave this [Fmaj7]town
(solo)
[Am]Two cigarettes from the [C]package gone
[Fmaj7]You must have thought about it [Dm]just that long
[Dm]I never knew you [Fmaj7]were so strong
[G]I guess I never [Am]will
(Chorus:)
[F]So Adios to Cali-[G]forn-[C]ia
[G]Nothing to do but turn a-[Am]round
I [F]always knew there's someone [G]comin' [C]for ya
[Am]Only [G]way you'd leave this [Fmaj7]town
[Am]Only [G]way you'd leave this[Fmaj7] town
(repeat intro riff, end on Am)

Important: The song above is NOT stored on the Chordie server. The original song is hosted at www.guitaretab.com. Chordie works as a search engine and provides on-the-fly formatting. Chordie does not index songs against artists'/composers' will. To remove this song please click here.

Text color:
Chord color:
Chord grids: 
Font size:    
Page size: 

Am C Dm F Fmaj7 G
Rate #0 of 2 versions

Login - add to songbook

SHARE PAGE  



You need to log in to post comments