Guitar Tabs, Chords and Lyrics
Major upgrade!! After one year development the new version of Chordie is now online! Please give feedback.


Imagine  John Lennon

Tabber:Brian Gelvin
Key:
^=down stroke
V=up stroke
*=Look at notes at end of tab
D.S. al Fine=go back to :S: and play to the (Fine)
/=repeat chord
|o o|=repeat
Chords used in this song:
[C/G] [Fmaj7/C] [Cmaj7/G] [F] [F/E] [Dm/F] [F] [G] [G7] [E7]  
 
 |0---0--------0--------1--1----1-----1--3--1---0---|
 |1---1--------0--------1--1----3-----1--0--0---3---|
 |0---2--------0--------2--2----2-----2--0--0---1---|
 |2---3--------2--------3--3----3-----3--0--0---2---|
 |3---3--------3--------3--3-------------2--2---2---|
 |3------------3--------1--0-------------3--3---0---|

* **
Intro: Q=80
Acoustic Guitar (Standard Tuning)
[C/G] [Fmaj7/C] [Cmaj7/G]  
 
 |-----0-----------------0-----0--0--0-----------0---------0-----0--0--|
 |-----1-----------------1-----0--1--1-------1---1---------0-----0--0--|
 |0----0--/--/--/--/--/--2--/--2--2--0-/-/-/-2-/-0-/-0--/--0--/--2--0--|
 |2----2-----------------3-----3--3--3-------3---3---2-----2-----0--2--|
 |3----3-----------------3-----3--3--3-------3---3---3-----3-----3--3--|
 |3----3---------------------------------------------3-----3-----3--3--|

^ ^ ^ ^ ^ ^ ^ ^ ^ ^ ^ ^ V ^ V ^ V ^ V ^ ^ ^ ^ ^ ^
 
 |---0----------------------------|
 |---1----------------------------|
 |/--2--/--/--/--/--/--/--/-/-/-/-|
 |---3----------------------------|
 |---3----------------------------|
 |--------------------------------|

^ ^ ^ ^ ^ ^ ^ ^ ^ V ^ V
Verse :S:
1.[C/G]|o Imagine there's no hea[Fmaj7/C]ven [C/G] It's easy if you [Fmaj7/C]try
2,3 see additional lyrics
[C/G] No hell below u[Fmaj7/C]s [C/G] above us only sky
[Fmaj7/C] [F(b)]Imagine [F/E]all the peop[Dm/F]le [F] [G]living for today[G7]__ Ah____ o|
Chorus:
[F(b)]___ You may [G]say___ I'm a [C/G]dreamer[E7] [F(b)] But I'm [G]not the only one_[C/G]_
[E7] [F(b)] I hope some d[G]ay____you'll
[C/G]join us__[E7] [F(b)] and the [G]world_____
will l[C/G]ive as one (Fine) [Fmaj7/C] D.S. al Fine
(no repeat)
Additonal lyrics: (in order of played)
1. Imagine there's no heaven.
It's easy if you try.
No hell below us.
Above us only sky.
Imagine all the people living for today, ah.
2. Imagine there's no contries.
It isn't hard to do.
Nothing to kill or die for.
And no religion too.
Imagine all the people living life in peace, you
Chorus. You may say I'm a Dreamer
But I'm not the only one.
I hope some day you'll join us.
And the world will live as one.
3. Imagine no possessions.
I wonder if you can.
No need for greed or hunger.
A brotherhood of man.
Imagine all the people sharing all the world, you
Chorus:
*=I'll put a (b) for the barred F
**=I won't put anything for the normal F

Important: The song above is NOT stored on the Chordie server. The original song is hosted at www.guitaretab.com. Chordie works as a search engine and provides on-the-fly formatting. Chordie does not index songs against artists'/composers' will. To remove this song please click here.

Text color:
Chord color:
Chord grids: 
Font size:    
Page size: 

C/G Cmaj7/G Dm/F E7 F F/E Fmaj7/C G G7
Rate #2 of 13 versions

Jango Player

Login - add to songbook

SHARE PAGE  




You need to log in to post comments