Guitar Tabs, Chords and Lyrics
Major upgrade!! After one year development the new version of Chordie is now online! Please give feedback.


Look at Me  John Lennon

 
 ------------------------------------------------------------------

JOHN LENNON - LOOK AT ME. From JOHN LENNON/PLASTIC ONO BAND
album. Released 11th december 1970.
 
 ------------------------------------------------------------------

Tabbed by:PJVillanueva
Look at me
Who am I supposed to be
Who am I supposed to be
Look at me
What am I supposed to be
What am I supposed to be
Look at me
Oh, my love
Oh, my love
Here I am
What am I supposed to do
What am I supposed to do
Here I am
What can I do for you
What can I do for you
Here I am
Oh, my love
Oh, my love
Look at me
Oh please look at me, my love
Here I am
Oh, my love
Who am I
Nobody knows but me
Nobody knows but me
Who am I
Nobody else can see
Just you and me
Who are we
Oh, my love
Oh, my love
Oh, my love
[A]  
 
 e|5------ ------- ------- -------|5------ ------- ------- -------|
 B|--------------------2----------|--------------------2----------|
 G|------------2------------------|------------2------------------|
 D|--------2---------------2------|--------2---------------2------|
 A|0------------------------------|-------------------------------|
 E|----------------0--------------|4---------------0--------------|

Look at me
[F#m]  
 
 e|2------ ------- ------- -------|2------ ------- ------- -------|
 B|--------------------2----------|--------------------2----------|
 G|------------2------------------|------------2------------------|
 D|--------4---------------4------|--------4---------------4------|
 A|4------------------------------|4------------------------------|
 E|----------------2--------------|----------------2--------------|

[B9]  
 
 e|2------ ------- ------- -------|2------ ------- ------- -------|
 B|--------------------2----------|--------------------2----------|
 G|------------2------------------|------------2------------------|
 D|--------1---------------1------|--------1---------------1------|
 A|2------------------------------|2------------------------------|
 E|----------------2--------------|----------------2--------------|

Who am I supposed to be
 
 e|2------ ------- ------- -------|2------ ------- ------- -------|
 B|--------------------2----------|--------------------2----------|
 G|------------2------------------|------------2------------------|
 D|--------1---------------1------|--------1---------------1------|
 A|2------------------------------|2------------------------------|
 E|----------------2--------------|----------------2--------------|

Who am I supposed to be
[A]  
 
 e|5------ ------- ------- -------|5------ ------- ------- -------|
 B|--------------------2----------|--------------------2----------|
 G|------------2------------------|------------2------------------|
 D|--------2---------------2------|--------2---------------2------|
 A|0------------------------------|-------------------------------|
 E|----------------4--------------|2---------------0--------------|

Look at me
[F#m]  
 
 e|2------ ------- ------- -------|2------ ------- ------- -------|
 B|--------------------2----------|--------------------2----------|
 G|------------2------------------|------------2------------------|
 D|--------4---------------4------|--------4---------------4------|
 A|4------------------------------|4------------------------------|
 E|----------------2--------------|----------------2--------------|

[B9]  
 
 e|2------ ------- ------- -------|2------ ------- ------- -------|
 B|--------------------2----------|--------------------2----------|
 G|------------2------------------|------------2------------------|
 D|--------1---------------1------|--------1---------------1------|
 A|2------------------------------|2------------------------------|
 E|----------------2--------------|----------------2--------------|

What am I supposed to be
[E9]  
 
 e|2------ ------- ------- -------|2------ ------- ------- -------|
 B|--------------------2----------|--------------------7----------|
 G|------------2------------------|------------2------------------|
 D|--------1---------------1------|--------1---------------6------|
 A|2------------------------------|2-------------/-7--------------|
 E|----------------2--------------|-------------------------------|

What am I supposed to be
[D] [F#m]  
 
 e|2------ ------- ------- -------|2------ ------- ------- -------|
 B|--------------------3----------|--------------------2----------|
 G|------------2------------------|------------2------------------|
 D|--------0---------------0------|--------4---------------4------|
 A|0------------------------------|4------------------------------|
 E|----------------2--------------|----------------2--------------|

Look at me
[Bm] [Bm7]  
 
 e|2------ ------- ------- -------|2------ ------- ------- -------|
 B|--------------------3----------|--------------------3----------|
 G|------------4------------------|------------2------------------|
 D|--------4---------------4------|--------4---------------4------|
 A|2------------------------------|2------------------------------|
 E|----------------2--------------|----------------2--------------|

[E6] [E6/F#] [E6] [E6/F#]  
 
 e|0------ ------- ------- -------|0------ ------- ------- -------|
 B|--------------------0----------|--------------------0----------|
 G|------------1------------------|------------1------------------|
 D|--------2---------------2------|--------2---------------2------|
 A|4------------------------------|4------------------------------|
 E|----------------2--------------|----------------2--------------|

Oh my love
[F#m]  
 
 e|2------ ------- ------- -------|2------ ------- ------- -------|
 B|--------------------2----------|--------------------2----------|
 G|------------2------------------|------------2------------------|
 D|--------4---------------4------|--------4---------------4------|
 A|4------------------------------|4------------------------------|
 E|----------------2--------------|----------------2--------------|

[E6] [E6/F#] [E6] [E6/F#]  
 
 e|0------ ------- ------- -------|0------ ------- ------- -------|
 B|--------------------0----------|--------------------0----------|
 G|------------1------------------|------------1------------------|
 D|--------2---------------2------|--------2---------------2------|
 A|4------------------------------|4------------------------------|
 E|----------------2--------------|----------------2--------------|

Oh my love
[F#m]  
 
 e|2------ ------- ------- -------|2------ ------- ------- -------|
 B|--------------------2----------|--------------------2----------|
 G|------------2------------------|------------2------------------|
 D|--------4---------------4------|--------4---------------4------|
 A|4------------------------------|4------------------------------|
 E|----------------2--------------|----------------2--------------| 

[A]  
 
 e|5------ ------- ------- -------|5------ ------- ------- -------|
 B|--------------------2----------|--------------------2----------|
 G|------------2------------------|------------2------------------|
 D|--------2---------------2------|--------2---------------2------|
 A|0------------------------------|-------------------------------|
 E|----------------0--------------|4---------------0--------------|

Here I am
[F#m]  
 
 e|2------ ------- ------- -------|2------ ------- ------- -------|
 B|--------------------2----------|--------------------2----------|
 G|------------2------------------|------------2------------------|
 D|--------4---------------4------|--------4---------------4------|
 A|4------------------------------|4------------------------------|
 E|----------------2--------------|----------------2--------------|

[B9]  
 
 e|2------ ------- ------- -------|2------ ------- ------- -------|
 B|--------------------2----------|--------------------2----------|
 G|------------2------------------|------------2------------------|
 D|--------1---------------1------|--------1---------------1------|
 A|2------------------------------|2------------------------------|
 E|----------------2--------------|----------------2--------------|

What am I supposed to do
 
 e|2------ ------- ------- -------|2------ ------- ------- -------|
 B|--------------------2----------|--------------------2----------|
 G|------------2------------------|------------2------------------|
 D|--------1---------------1------|--------1---------------1------|
 A|2------------------------------|2------------------------------|
 E|----------------2--------------|----------------2--------------|

What am I supposed to do
[A]  
 
 e|5------ ------- ------- -------|5------ ------- ------- -------|
 B|--------------------2----------|--------------------2----------|
 G|------------2------------------|------------2------------------|
 D|--------2---------------2------|--------2---------------2------|
 A|0------------------------------|-------------------------------|
 E|----------------4--------------|2---------------0--------------|

Here I am
[F#m]  
 
 e|2------ ------- ------- -------|2------ ------- ------- -------|
 B|--------------------2----------|--------------------2----------|
 G|------------2------------------|------------2------------------|
 D|--------4---------------4------|--------4---------------4------|
 A|4------------------------------|4------------------------------|
 E|----------------2--------------|----------------2--------------|

[B9]  
 
 e|2------ ------- ------- -------|2------ ------- ------- -------|
 B|--------------------2----------|--------------------2----------|
 G|------------2------------------|------------2------------------|
 D|--------1---------------1------|--------1---------------1------|
 A|2------------------------------|2------------------------------|
 E|----------------2--------------|----------------2--------------|

What can I do for you
[E9]  
 
 e|2------ ------- ------- -------|2------ ------- ------- -------|
 B|--------------------2----------|--------------------7----------|
 G|------------2------------------|------------2------------------|
 D|--------1---------------1------|--------1---------------6------|
 A|2------------------------------|2-------------/-7--------------|
 E|----------------2--------------|-------------------------------|

What can I do for you
[D] [F#m]  
 
 e|2------ ------- ------- -------|2------ ------- ------- -------|
 B|--------------------3----------|--------------------2----------|
 G|------------2------------------|------------2------------------|
 D|--------0---------------0------|--------4---------------4------|
 A|0------------------------------|4------------------------------|
 E|----------------2--------------|----------------2--------------|

Here I am
[Bm] [Bm7]  
 
 e|2------ ------- ------- -------|2------ ------- ------- -------|
 B|--------------------3----------|--------------------3----------|
 G|------------4------------------|------------2------------------|
 D|--------4---------------4------|--------4---------------4------|
 A|2------------------------------|2------------------------------|
 E|----------------2--------------|----------------2--------------|

[E6] [E6/F#] [E6] [E6/F#]  
 
 e|0------ ------- ------- -------|0------ ------- ------- -------|
 B|--------------------0----------|--------------------0----------|
 G|------------1------------------|------------1------------------|
 D|--------2---------------2------|--------2---------------2------|
 A|4------------------------------|4------------------------------|
 E|----------------2--------------|----------------2--------------|

Oh my love
[F#m]  
 
 e|2------ ------- ------- -------|2------ ------- ------- -------|
 B|--------------------2----------|--------------------2----------|
 G|------------2------------------|------------2------------------|
 D|--------4---------------4------|--------4---------------4------|
 A|4------------------------------|4------------------------------|
 E|----------------2--------------|----------------2--------------|

[E6] [E6/F#] [E6] [E6/F#]  
 
 e|0------ ------- ------- -------|0------ ------- ------- -------|
 B|--------------------0----------|--------------------0----------|
 G|------------1------------------|------------1------------------|
 D|--------2---------------2------|--------2---------------2------|
 A|4------------------------------|4------------------------------|
 E|----------------2--------------|----------------2--------------|

Oh my love
Middle eight
[F#m] [F#mmaj7]  
 
 e|2------ ------- ------- -------|2------ ------- ------- -------|
 B|--------------------2----------|--------------------2----------|
 G|------------2------------------|------------2------------------|
 D|--------4---------------4------|--------3---------------3------|
 A|4------------------------------|4------------------------------|
 E|----------------2--------------|----------------2--------------| 

Look at me
[F#m7] [B9]  
 
 e|2------ ------- ------- -------|2------ ------- ------- -------|
 B|--------------------2----------|--------------------2----------|
 G|------------2------------------|------------2------------------|
 D|--------2---------------2------|--------1---------------1------|
 A|4------------------------------|2------------------------------|
 E|----------------2--------------|----------------2--------------| 

[F#m] [F#mmaj7]  
 
 e|2------ ------- ------- -------|2------ ------- ------- -------|
 B|--------------------2----------|--------------------2----------|
 G|------------2------------------|------------2------------------|
 D|--------4---------------4------|--------3---------------3------|
 A|4------------------------------|4------------------------------|
 E|----------------2--------------|----------------2--------------| 

Oh please at me
Look
[F#m7] [B9]  
 
 e|2------ ------- ------- -------|2------ ------- ------- -------|
 B|--------------------2----------|--------------------2----------|
 G|------------2------------------|------------2------------------|
 D|--------2---------------2------|--------1---------------1------|
 A|4------------------------------|2------------------------------|
 E|----------------2--------------|----------------2--------------| 

my love
[D] [F#m]  
 
 e|2------ ------- ------- -------|2------ ------- ------- -------|
 B|--------------------3----------|--------------------2----------|
 G|------------2------------------|------------2------------------|
 D|--------0---------------0------|--------4---------------4------|
 A|0------------------------------|4------------------------------|
 E|----------------2--------------|----------------2--------------|

Here I am
[Bm] [Bm7]  
 
 e|2------ ------- ------- -------|2------ ------- ------- -------|
 B|--------------------3----------|--------------------3----------|
 G|------------4------------------|------------2------------------|
 D|--------4---------------4------|--------4---------------4------|
 A|2------------------------------|2------------------------------|
 E|----------------2--------------|----------------2--------------|

[E6] [E6/F#] [E6] [E6/F#]  
 
 e|0------ ------- ------- -------|0------ ------- ------- -------|
 B|--------------------0----------|--------------------0----------|
 G|------------1------------------|------------1------------------|
 D|--------2---------------2------|--------2---------------2------|
 A|4------------------------------|4------------------------------|
 E|----------------2--------------|----------------2--------------|

Oh my love
[F#m]  
 
 e|2------ ------- ------- -------|2------ ------- ------- -------|
 B|--------------------2----------|--------------------2----------|
 G|------------2------------------|------------2------------------|
 D|--------4---------------4------|--------4---------------4------|
 A|4------------------------------|4------------------------------|
 E|----------------2--------------|----------------2--------------| 

[A]  
 
 e|5------ ------- ------- -------|5------ ------- ------- -------|
 B|--------------------2----------|--------------------2----------|
 G|------------2------------------|------------2------------------|
 D|--------2---------------2------|--------2---------------2------|
 A|0------------------------------|-------------------------------|
 E|----------------0--------------|4---------------0--------------| 

Who am I
[F#m]  
 
 e|2------ ------- ------- -------|2------ ------- ------- -------|
 B|--------------------2----------|--------------------2----------|
 G|------------2------------------|------------2------------------|
 D|--------4---------------4------|--------4---------------4------|
 A|4------------------------------|4------------------------------|
 E|----------------2--------------|----------------2--------------| 

[B9]  
 
 e|2------ ------- ------- -------|2------ ------- ------- -------|
 B|--------------------2----------|--------------------2----------|
 G|------------2------------------|------------2------------------|
 D|--------1---------------1------|--------1---------------1------|
 A|2------------------------------|2------------------------------|
 E|----------------2--------------|----------------2--------------|

Nobody knows but me
 
 e|2------ ------- ------- -------|2------ ------- ------- -------|
 B|--------------------2----------|--------------------2----------|
 G|------------2------------------|------------2------------------|
 D|--------1---------------1------|--------1---------------1------|
 A|2------------------------------|2------------------------------|
 E|----------------2--------------|----------------2--------------|

Nobody knows but me
[A]  
 
 e|5------ ------- ------- -------|5------ ------- ------- -------|
 B|--------------------2----------|--------------------2----------|
 G|------------2------------------|------------2------------------|
 D|--------2---------------2------|--------2---------------2------|
 A|0------------------------------|-------------------------------|
 E|----------------4--------------|2---------------0--------------| 

Who am I
[F#m]  
 
 e|2------ ------- ------- -------|2------ ------- ------- -------|
 B|--------------------2----------|--------------------2----------|
 G|------------2------------------|------------2------------------|
 D|--------4---------------4------|--------4---------------4------|
 A|4------------------------------|4------------------------------|
 E|----------------2--------------|----------------2--------------|

[B9]  
 
 e|2------ ------- ------- -------|2------ ------- ------- -------|
 B|--------------------2----------|--------------------2----------|
 G|------------2------------------|------------2------------------|
 D|--------1---------------1------|--------1---------------1------|
 A|2------------------------------|2------------------------------|
 E|----------------2--------------|----------------2--------------|

Nobody else can see
[E9]  
 
 e|2------ ------- ------- -------|7------ ------- ------- -------|
 B|--------------------2----------|--------------------7----------|
 G|------------2------------------|------------7------------------|
 D|--------1---------------1------|--------6---------------6------|
 A|2----------------------------/-|7------------------------------|
 E|----------------2--------------|----------------7--------------|

Just you and me
[D] [F#m]  
 
 e|2------ ------- ------- -------|2------ ------- ------- -------|
 B|--------------------3----------|--------------------2----------|
 G|------------2------------------|------------2------------------|
 D|--------0---------------0------|--------4---------------4------|
 A|0------------------------------|4------------------------------|
 E|----------------2--------------|----------------2--------------|

Who are we
[Bm] [Bm7]  
 
 e|2------ ------- ------- -------|2------ ------- ------- -------|
 B|--------------------3----------|--------------------3----------|
 G|------------4------------------|------------2------------------|
 D|--------4---------------4------|--------4---------------4------|
 A|2------------------------------|2------------------------------|
 E|----------------2--------------|----------------2--------------|

[E6] [E6/F#] [E6] [E6/F#]  
 
 e|0------ ------- ------- -------|0------ ------- ------- -------|
 B|--------------------0----------|--------------------0----------|
 G|------------1------------------|------------1------------------|
 D|--------2---------------2------|--------2---------------2------|
 A|4------------------------------|4------------------------------|
 E|----------------2--------------|----------------2--------------|

Oh my love
[F#m]  
 
 e|2------ ------- ------- -------|2------ ------- ------- -------|
 B|--------------------2----------|--------------------2----------|
 G|------------2------------------|------------2------------------|
 D|--------4---------------4------|--------4---------------4------|
 A|4------------------------------|4------------------------------|
 E|----------------2--------------|----------------2--------------|

[E6] [E6/F#] [E6] [E6/F#]  
 
 e|0------ ------- ------- -------|0------ ------- ------- -------|
 B|--------------------0----------|--------------------0----------|
 G|------------1------------------|------------1------------------|
 D|--------2---------------2------|--------2---------------2------|
 A|4------------------------------|4------------------------------|
 E|----------------2--------------|----------------2--------------|

Oh my love
[F#m]  
 
 e|2------ ------- ------- -------|2------ ------- ------- -------|
 B|--------------------2----------|--------------------2----------|
 G|------------2------------------|------------2------------------|
 D|--------4---------------4------|--------4---------------4------|
 A|4------------------------------|4------------------------------|
 E|----------------2--------------|----------------2--------------| 

(.
[E6] [E6/F#] [E6] [E6/F#]  
 
 e|0------ ------- ------- -------|0------ ------- ------- -------|
 B|------------------0------------|--------------------0----------|
 G|----------1--------------------|------------1------------------|
 D|----2-------------------2------|--------2---------------2------|
 A|4------------------------------|4------------------------------|
 E|----------------2--------------|----------------2--------------|

Oh my love
(.
[F#m]  
 
 e|2------ ------- ------- -------|------- ------- ------- -------|
 B-2------------------------------|-------------------------------|
 G|2------------------------------|-------------------------------|
 D|4------------------------------|-------------------------------|
 A|4------------------------------|-------------------------------|
 E|2------------------------------|-------------------------------|
 e|------- ------- ------- -------|------- ------- ------- -------|
 B|-------------------------------|-------------------------------|
 G|------------------------2------|-------------------------------|
 D|----------------2-H-4----------|-------------------------------|
 A|--------2-H-4------------------|-------------------------------|
 E|-------------------------------|-------------------------------|

B Bend
R Release
/ Slide up
\ Slide down
H Hammer-on
P Pull-off
~ Vibrato
+ Harmonic
x Mute note
. Play note like a dot in standard notation
^ Ties two notes together
(. Pause

Important: The song above is NOT stored on the Chordie server. The original song is hosted at www.guitaretab.com. Chordie works as a search engine and provides on-the-fly formatting. Chordie does not index songs against artists'/composers' will. To remove this song please click here.

Text color:
Chord color:
Chord grids: 
Font size:    
Page size: 

A Bm Bm7 D E6 F#m F#m7 F#mmaj7
Rate #1 of 4 versions

Jango Player

Login - add to songbook

SHARE PAGE  




You need to log in to post comments