Guitar Tabs, Chords and Lyrics
Major upgrade!! After one year development the new version of Chordie is now online! Please give feedback.


Authority Song  John Mellencamp

Intro:
 
 |--------------------------------------------------------|
 |--------------------------------------------------------|
 |--------------------------------------------------------|
 |----------0---0---0-0--0--0--0--0---0-0---0-0--0--0--0--|
 |-0-5-0-5b--5b--5b----5b-5b-5b----5b----5b----5b-5b-5b---|
 |--------------------------------------------------------|
 |-------------------------------------------------------|
 |-------------------------------------------------------|
 |-------------------------------------------------------|
 |-0---0-0---0-0--0--0--0--0---0-0---0-0--0--0--0~~~-----|
 |--5b----5b----5b-5b-5b----5b----5b----5b-5b-5b---------|
 |-------------------------------------------------------|

[A]They like to get you in a [D]compri[E]mising po[A]sition[D] [E]
[A]They like to get you with [D]a smile [E]on your [A]face[D] [E]
[A]Oh they think you're so cute when they [D]got in [E]that con[A]dition[D] [E]
[A]Well I think it's a [D]to[E]tal dis[A]grace, [D]and I [E]say
[A]I fight authority, au[D]thority [E]always [A]wins[D] [E]
[A]Well I fight authority, au[D]thority [E]always [A]wins[D] [E]
[A]Well I've been doin' it since I was a you[D]ng kid and [E]I come out win[A]nin'[D] [E]
[A]Well I fight authority, au[D]thority [E]always [A]wins[D] [E]
[A] [D] [E] [A] [D] [E]  
 
 |-------------------------------------------------------|
 |-------------------------------------------------------|
 |-------------------------------------------------------|
 |-0---0-0---0-0--0--0--0--0---0-0---0-0--0--0--0~~~-----|
 |--5b----5b----5b-5b-5b----5b----5b----5b-5b-5b---------|
 |-------------------------------------------------------|

[A]Call my preacher I said give [D]me stre[E]ngth for rou[A]nd 5[D] [E]
[A]He said you don't need no str[D]ength you [E]need to grow [A]up son[D] [E]
[A]I said growin' up leads to g[D]rowin [E]old and the[A]n to dyin'[D] [E]
[A]and dyin' to me don't s[D]ound like [E]all that much [A]fun, and I[D] s[E]ay
[A]I fight authority, au[D]thority [E]always [A]wins[D] [E]
[A]Well I fight authority, au[D]thority [E]always [A]wins[D] [E]
[A]Well I've been doin' it since I was a you[D]ng kid and [E]I come out win[A]nin'[D] [E]
[A]Well I fight authority, au[D]thority [E]always [A]wins[D] [E]
A D E A D E (repeat 4x)
[A]I say oh no...
(Acappella with hand clap)
I fight authority, authority always wins
Well I fight authority, authority always wins
[A]Well I've been doin' it since I was a you[D]ng boy and [E]I come out win[A]ning'[D] [E]
[A]Well I fight authority, au[D]thority [E]always [A]wins[D] [E]
Outro: (repeat and fade)
[A]I fight authority, au[D]thority [E]always [A]wins[D] [E]
[A]Well I fight authority, au[D]thority [E]always [A]wins[D] [E]
[A]Well I've been doin' it since I was a you[D]ng kid and [E]I come out win[A]nin'[D] [E]
[A]Well I fight authority, au[D]thority [E]always [A]wins[D] [E]

Important: The song above is NOT stored on the Chordie server. The original song is hosted at www.guitaretab.com. Chordie works as a search engine and provides on-the-fly formatting. Chordie does not index songs against artists'/composers' will. To remove this song please click here.

Text color:
Chord color:
Chord grids: 
Font size:    
Page size: 

A D E
Rate #0 of 11 versions

Jango Player

Login - add to songbook

SHARE PAGE  




You need to log in to post comments