Guitar Tabs, Chords and Lyrics
Login is temporarily disabled for some users. Do not panic. Will be back in an hour or two. DO NOT REREGISTER!!


One  Johnny Cash



-----------------------------------------------------------------------

            [Am]                            [D]                   [Fmaj7]                                   
e|----0--0-0-0-0---0-0----------0h2-2-2-2-2-2-2----------0-0-0-0-3-0-0--|
B|----1--1-1-1-0h1-1-1----------3---3-3-3-3-3-3----------1-1-1-1-1-1-1--|
G|----2--2-2-2-2---2-2----------2---2-2-2-2-2-2----------2-2-2-2-2-2-2--|
D|----2--2-2-2-2---2-2-------0--0---0-0-0-0-0-0-------3--3-3-3-3-3-3-3--|
A|-0--------------------------------------------------------------------|
E|----------------------------------------------------------------------|

          [G]                                                                                    
e|----2-2-2-2-2---2-2----------|
B|----0-0-0-0-0h1-0-0----------|
G|----0-0-0-0-0---0-0----------|
D|-0--0-0-0-0-0---0-0----------|
A|----2-2-2-2-2---2-2----------|
E|----3-3-3-3-3---3-3----------|

[Am]  Is it getting [D]better
[Fmaj7]  Or do you feel the sa[G]me
[Am]   Will it make it [D]easier on you now
[Fmaj7]   You got someone to bla[G]me
     You say  [C]
     One love [Am]
     One life [Fmaj7]
     When it's one need  [C]
in the night

It's one love
     We get to s[Am]hare it
     It le[Fmaj7]aves you baby
     If you don't c[C]are for it

Am, D, Fmaj7, G

Did I disappoint you
Or leave a bad taste in your mouth
You act like you never had love
And you want me to go without

Well it's too late
Tonight
To drag the past out
Into the light
We're one
But we're not the same
We get to carry each other
Carry each other

One

Have you come here for forgiveness
Have you come to raise the dead
Have you come here to play Jesus
To the lepers in your head
Did I ask too much
More than a lot
You gave me nothing
Now it's all I got
We're one
But we're not the same
We hurt each other
Then we do it again
You say

(Bridge)
    [C]Love is a temple
    [Am]Love a higher law
    [C]Love is a temple
    [Am]Love the higher law
    [C]You ask me to enter
    [G]But then you make me crawl
    And I can't be holding on [Fmaj7]

To what you got
    When all you got is h[C]urt

One love
One blood
One life
You got to do what you should

One life
With each other
Sisters
Brothers

One life
But we're not the same
We get to carry each other
Carry each other

One

One.

Important: The song above is NOT stored on the Chordie server. The original song is hosted at www.guitaretab.com. Chordie works as a search engine and provides on-the-fly formatting. Chordie does not index songs against artists'/composers' will. To remove this song please click here.

Text color:
Chord color:
Chord grids: 
Font size:    
Page size: 

Am C D Fmaj7 G
Rate #1 of 6 versions

Jango Player

Login - add to songbook

SHARE PAGE  



You need to log in to post comments