Guitar Tabs, Chords and Lyrics
Login is temporarily disabled for some users. Do not panic. Will be back in an hour or two. DO NOT REREGISTER!!


The Last Time  Johnny Cash

Song: The Last Time
***Please Rate and Comment***
Capo on 3rd Fret
Intro:
[A]  
 
 |-----------0-0----0-0-------------0-0----0-0-------------------------|
 |-----------2-2----2-2-------------2-2----2-2-------------------------|
 |-----------2-2----2-2-------------2-2----2-2-------------------------|
 |-----------2-2----2-2-------------2-2----2-2-------------------------|
 |---------0-------------0--------0-------------0--------0--------0----|
 |---0-2-4--------0---------0-2-4--------0---------0-2-4----0-2-4------|
 |----------0-0----0-0----0-0----0-0----||
 |----------2-2----2-2----2-2----2-2----||
 |----------2-2----2-2----2-2----2-2----||
 |----------2-2----2-2----2-2----2-2----||
 |--------0-------------0---------------||
 |--0-2-4--------0-------------0--------||

[A] Darlin', the [E7]seasons are [A]changing;
See, now, the [E7]leaves, how they[A] die.
Love needs no [E7]reason for [A]ending.
Come kiss your [E7]baby good-[A]bye.[A7]
[D] Darlin', the last time you lied, was it really the[A7] last time?
Have all the tears that you've cried simply dried up and gone?[D]
All in the world you can hurt anymore is my [A7]feelings.
Whate[D]ver lov[D7]e ever was never lasted too long.
[G]Maybe the best of our life was a beautiful[D] dreaming. G
That conscience was destin[D]ed to crumble like castles of sand.
[G]All there is left of our love is a little girl's[D] laughter.
[E7]Let her keep makin' believin' as long as she ca[A7]n.
[D]Now and again I still hear some old song I don't[A7] want to.
Is it the same over there where you found your new [D]friend?
Sometimes at night I still wake up and feel somethin'[A7] missing.
Maybe I'll never believe in forever a-[D]gain.[D7]
[G]Darlin', the [D7]seasons are [G]changing;
See, now, the [D7]leaves, how they [G]die.
Love needs no [D7]reason for e[G]nding.
Come kiss your [D7]baby good-b[G]ye.
This is a very good song from johnny cash if you have never heard
it look it up on YouTube its a great song
Please Rate and Comment PLEASE!!!!

Important: The song above is NOT stored on the Chordie server. The original song is hosted at www.guitaretab.com. Chordie works as a search engine and provides on-the-fly formatting. Chordie does not index songs against artists'/composers' will. To remove this song please click here.

Text color:
Chord color:
Chord grids: 
Font size:    
Page size: 

A A7 D D7 E7 G
Rate #1 of 5 versions

Jango Player

Login - add to songbook

SHARE PAGE  




You need to log in to post comments